» » »

#2 Tabs (ver.2)

Artists:  A B C D E F G H I J K L M N O P Q R S T U V W X Y Z # 

#2 Tabs (ver.2)

Blur
Rating:
0/5 (0 votes)

Hard to play? Try these video lessons and learn fast.
                Drop D tuning 

Clean part
e------------------------------------------------------------------------------
b------------------------------------------------------------------------------
g--10-----x-------8------x------13-----15----17-------------------------
d--10-x2-x-x6--8--x3-x--x2-13x2-15----17--x4--------------------
a--8-------x-------6------x------11-----13----15------------------------
d------------------------------------------------------------------------------
Distorted part
e------------------------------------------------------------------------------
b------------------------------------------------------------------------------
g------------------------------------------------------------------------------
d---3------x-------1------x-------6-------8----10-------------------------
a---3-x2--x--x6-1--x3-x--x2--6-x2--8----10-x4---------------------
d---3------x-------1------x-------6-------8----10-------------------------
            
Hard to play? Try these video lessons and learn fast. | Correct




comments powered by Disqus
↑ Back to top | Tablatures and chords are parodies/interpretations of the original songs. You may use it for private study, scholarship, research or language learning purposes only