» » »

Blur, #2 Tabs (ver.1)

Artists:  A B C D E F G H I J K L M N O P Q R S T U V W X Y Z # 

#2 Tabs (ver.1)

Blur Tabs
Rating:
0/5 (0 votes)
#2 lessons Tabs too difficult? Try these video lessons and learn fast
                Tuning:	Eb, Ab, Db, Gb, Bb, Eb

Intro/Verse: (Clean)
Eb:---------------------------------------------------------
Bb:---------------------10-10-12-14-14-14-14----------------
Gb:-11-11-x-x-9-9-9-x-x--9--9-11-13-13-13-13----------------
Db:-11-11-x-x-9-9-9-x-x--7--7--9-11-11-11-11----------------
Ab:--9--9-x-x-7-7-7-x-x-------------------------------------
Eb:---------------------------------------------------------

Chorus: (Distortion)
Eb:---------------------------------------------------------
Bb:---------------------------------------------------------
Gb:-----------------2-2-4/6-6-6-6---------------------------
Db:-4-4-4-4-2-2-2-2-2-2-4/6-6-6-6---------------------------
Ab:-4-4-4-4-2-2-2-2-0-0-2/4-4-4-4---------------------------
Eb:-2-2-2-2-0-0-0-0-----------------------------------------

Bridge: (Distortion)
Eb:---------------------------------------------------------
Bb:---------------------------------------------------------
Gb:-----------------2-2-2-2-2-2-2-2-7-7-7-7-7-7-7-7-7-7-7-7-
Db:-2-2-2-2-2-2-2-2-2-2-2-2-2-2-2-2-7-7-7-7-7-7-7-7-7-7-7-7-
Ab:-2-2-2-2-2-2-2-2-0-0-0-0-0-0-0-0-5-5-5-5-5-5-5-5-5-5-5-5-
Eb:-0-0-0-0-0-0-0-0-----------------------------------------

Eb:---------------------------------------------------------
Bb:---------------------------------------------------------
Gb:-7-7-7-7-------------------------------------------------
Db:-7-7-7-7-------------------------------------------------
Ab:-5-5-5-5-------------------------------------------------
Eb:---------------------------------------------------------
            
Submit corrections

comments powered by Disqus
↑ Back to top | Blur Tabs for #2. Lyrics for acoustic guitar and electric guitar. Tablatures and chords are parodies/interpretations of the original songs. You may use it for private study, scholarship, research or language learning purposes only