» » »

Blue October, Let It Go Tabs (ver.2)

Artists:  A B C D E F G H I J K L M N O P Q R S T U V W X Y Z # 

Let It Go Tabs (ver.2)

Blue October Tabs
 Rating:
4/5 (4 votes)
Let It Go lessons Tabs too difficult? Try these video lessons and learn fast
                i first tabbed the intro and i had people tell me to finish so here it is
i tabbed it on a electric guitar and it sounds just as good as an acoustic!

intro
e---------------------------|
b---------------------------|
g---5544-2-4h5p4-2-0--5-----|7/9  do 3 times
d-------------------3-------|
a-0-------------------------|
e---------------------------|

verse 1
e-----------------|
b-----------------|
g---5---5---5---5-| do two times
d--5-5-5-5-5-5-5--|
a-3---3---0---3---|
e-----------------|

chorus 1
e----------------------------------------------------------------------|
b----------------------------------------------------------------------|
g---5---5---5------5---5--------------5----------5---------5---5---5---|
d--5-5-5-5-5-5----5-5-5-5-------------5----------5--5-5-5-5-5-5-5-5-5--|
a-3---0---3---3--3---0---3----3-3-3-3-3--3-3-3-3-3-------3---0---3---3-|
e----------------------------------------------------------------------|


verse 2

e-------------------------|
b-------------------------|
g---5---5---5---5------5--|
d--5-5-5-5-5-5-5-5----5-5-|  do two times
a-3---3---0---3---3-------|
e-------------------------|

chorus 2

e----------------------|
b----------------------|
g---5---5---5-------5--|
d--5-5-5-5-5-5---5-5-5-| do three times
a-3---0---3---3---3----|
e----------------------|

chorus 2 cont.
e---------------------------------------|
b---------------------------------------|
g---5---5-----------5----------5--------|
d--5-5-5-5----------5----------5--5-5-5-|
a-3---0---3---3-3-3-3--3-3-3-3-3--------|
e---------------------------------------|

bridge
e--------------------|
b--------------------|
g---5---5---5-----5--|
d--5-5-5-5-5-5-5-5-5-| do six times on the seventh time end on 3rd fret on the
a-3---0---3---3-3----| A-string
e--------------------|

ending
e---------------------|
b---------------------|
g---------5---------5-|
d---------5---------5-|
a-3-3-3-3-3-3-3-3-3-3-|
e---------------------|
            
Submit corrections

comments powered by Disqus
↑ Back to top | Blue October Tabs for Let It Go. Lyrics for acoustic guitar and electric guitar. Tablatures and chords are parodies/interpretations of the original songs. You may use it for private study, scholarship, research or language learning purposes only