» » »

Blue October, Calling You Tabs (ver.1)

Artists:  A B C D E F G H I J K L M N O P Q R S T U V W X Y Z # 

Calling You Tabs (ver.1)

Blue October Tabs
Rating:
3/5 (10 votes)
Calling You lessons Tabs too difficult? Try these video lessons and learn fast
                This is a pretty simple song.  Basic rhythm, just listen to the song-chords
and solo are as follows:

There's something that I can't quite, explain.
-----------------------------------------------------------
-----------------------------------------------------------
-----------------------------------------------------------
-----------------------------------------------------------
-----------------------------------------5~----------------
-----------------------------------------------------------

........I'm so in love with you.

  G                C                F        G

--3----------------3----------------1--------3-------------
--3----------------5----------------1--------3-------------
--4----------------5----------------2--------4-------------
--5----------------5----------------3--------5-------------
--5----------------3----------------3--------5-------------
--3----------------3----------------1--------3-------------

And if I said it a hundred times before...Expect a thousand more.

  C   (arpeggiate)  F               G                 C

--3-----------------1---------------3-----------------3-----
--5-----------------1---------------3-----------------5-----
--5-----------------2---------------4-----------------5-----
--5-----------------3---------------5-----------------5-----
--3-----------------3---------------5-----------------3-----
--3-----------------1---------------3-----------------3-----

You'll never take that away.

     F                   G

-----1-------------------3-------------------------------
-----1-------------------3-------------------------------
-----2-------------------4-------------------------------
-----3-------------------5-------------------------------
-----3-------------------5-------------------------------
-----1-------------------3-------------------------------


Well expect me to be


   F
Calling you to see
            G
If you're okay when I'm not around,
   F
Asking if you love me
   G                           
I love the way you make it sound
   F
Calling you to see
   G
Do I try too hard to make you smile,
       G
To make us smile...

REFRAIN
               C            F
I will keep calling you to see
              G
If you're sleeping or you're dreaming
                                        C
If you're dreaming, are you dreaming of me?
           F                   G
I can't believe you actually picked me

Verse 2- SAME AS VERSE 1

I thought that the world had lost its sway
(It's so hard sometimes)
Then I fell in love with you
(Then came you)
And you took that away
(It's not so difficult, the world is not so difficult)

You take away the old, show me the new
And I feel like I can fly when I stand next to you
So while I'm on this phone
A hundred miles from home
I'll take the words you gave
And send them back to you

I only want to see
If you're okay when I’m not around,
Asking if you love me
I love the way you make it sound
Calling you to see
Do I try too hard to make you smile,
To make us smile....

REFRAIN (SAME)

I will keep calling you to see
If you're sleeping or you're dreaming
If you're dreaming, are you dreaming of me?
I can't believe you actually picked me...

Solo

--------------------------13-13-13-13-13-13-13-13-------------
--13-13-13-13-13-13-13-13-------------------------------------
--------------------------------------------------------------
--------------------------------------------------------------
--------------------------------------------------------------
--------------------------------------------------------------


--------------------------------------------------------------
--12-12-12-12-12-12-12-12-8-8-8-6-6-6-5-----------------------
--------------------------------------------------------------
--------------------------------------------------------------
--------------------------------------------------------------
--------------------------------------------------------------

--------------------------13-13-13-13-13-13-13-13-------------
--13-13-13-13-13-13-13-13-------------------------------------
--------------------------------------------------------------
--------------------------------------------------------------
--------------------------------------------------------------
--------------------------------------------------------------


--------------------------------------------------------------
--12-12-12-12-12-12-12-12-8-8-8-6-6-6-5-3-3-3-3---------------
--------------------------------------------------------------
--------------------------------------------------------------
--------------------------------------------------------------
--------------------------------------------------------------

REFRAIN (x2)
               C            F
I will keep calling you to see
              G
If you're sleeping or you're dreaming
                                        C
If you're dreaming, are you dreaming of me?
           F                   G
I can't believe you actually picked me

Oh Oh Oh.....(Same 3 chords as refrain)

Fade out


That's it.  Email with questions or corrections-
            
Submit corrections

comments powered by Disqus
↑ Back to top | Blue October Tabs for Calling You. Lyrics for acoustic guitar and electric guitar. Tablatures and chords are parodies/interpretations of the original songs. You may use it for private study, scholarship, research or language learning purposes only