» » »

Into The Ocean Tabs (ver.1)

Artists:  A B C D E F G H I J K L M N O P Q R S T U V W X Y Z # 

Into The Ocean Tabs (ver.1)

Blue October
Rating:
0/5 (0 votes)

Tabs too difficult? Try these video lessons and learn fast.
                Blue October
Foiled

Verse:
E-----------------------------|
B-----------------------------|
G-----------------------------|
D-0-2~~~---0------------------|
A------------3~~~------0------|
E------------------------3~~~-|

Chorus:
E-0~--0~--1~--0~-|
B-1~--1~--1~--1~-|
G-0~--2~--2~--0~-|
D-2~--2~--3~--2~-|
A-3~--0~--3~--3~-|
E---------1~-----|

Break: Now waking to the sun...
E----------------------------|
B----------------------------|
G----------------------------|
D-0-2~~~---------------------|
A---------------------0------|
E-----------------------3~~~-|

Outro: Into space...
E--------------------|
B--------------------|
G--------------------|
D-0------2~-----2~---|
A---3~~-3---0-----3~-|
E------------3~------|

Questions?
            
Tabs too difficult? Try these video lessons and learn fast.




comments powered by Disqus
↑ Back to top | Tablatures and chords are parodies/interpretations of the original songs. You may use it for private study, scholarship, research or language learning purposes only