» » »

Independently Happy Tabs (ver.2)

Artists:  A B C D E F G H I J K L M N O P Q R S T U V W X Y Z # 

Independently Happy Tabs (ver.2)

Blue October
Rating:
0/5 (0 votes)

Tabs too difficult? Try these video lessons and learn fast.
                Blue October
Consent To Treatment

Intro:
E---------|
B---------|
G-5~------|
D-5~---5~-|
A-3~---5~-|
E------3~-|

Verse:
E-------------------|
B-------------------|
G-----------5~------|
D-5~---5~---5~---5~-|
A-5~---5~---3~---5~-|
E-3~---3~--------3~-|

Pre-Chorus: Well there's an empty hope chest...
E---------|
B---------|
G-5~------|
D-5~---5~-|
A-3~---5~-|
E------3~-|

Chorus:
E-------------------------------------------------|
B-------------------------------------------------|
G-----------------------------------555555555555--|
D-55555555555555555555555555555555555555555555555~|
A-55555555555555555555555555555555553333333333335~|
E-3333333333333333333333333333333333------------3~|

Solo: Second time through play the parentheses
E--------------------------------------|
B-13-12-10/8-1313-12-10/8-1313-12-10/8-|
G--------------------------------------|
D--------------------------------------|
A--------------------------------------|
E--------------------------------------|

E---------------------------------|
B-13-12-10/8-1313-12-10/8-8/10-10-|
G---------------------------------|
D---------------------------------|
A---------------------------------|
E---------------------------------|

Solo: Rhythm guitar
E---------------------------------|
B---------------------------------|
G---------55555555----------------|
D-55555555555555552222222233333333|
A-55555555333333332222222233333333|
E-33333333--------0000000011111111|

Last Verse:
E--------------------------------------|
B----------9b11r9b11-9b11r9b11---------|
G-3-3-3p0----------------------5~------|
D------------------------------5~---5~-|
A------------------------------3~---5~-|
E-----------------------------------3~-|

Questions?
            
Tabs too difficult? Try these video lessons and learn fast.




comments powered by Disqus
↑ Back to top | Tablatures and chords are parodies/interpretations of the original songs. You may use it for private study, scholarship, research or language learning purposes only