>
 >
Calling You 3

Calling You 3 Guitar Tabs

Blue October - Calling You 3 chords, tabs, tablatures, lyrics

Guitar lessons | Add/correct | Request | Top 50 tabs Artists:  A B C D E F G H I J K L M N O P Q R S T U V W X Y Z 0-9

Calling You 3 Guitar Tabs – Blue October

CD, Sheet music, Poster

Do you like Calling You 3? Share with your friends now
ChordsTabsTabs v2Tabs v3Tabs v4Ukulele
Blue October

Guitar 1
Intro: Reverb
e|----|----|-1~-|-3~-|-0~-|-1~-|-1~-|-3~-|-0~-|-1~-|-1~-|-3~-|-0~-|-1~-|-1~-|-3~-|
B|----|----|-3~-|-3~-|-1~-|-1~-|-3~-|-3~-|-1~-|-1~-|-3~-|-3~-|-1~-|-1~-|-3~-|-3~-|
G|----|----|-2~-|-0~-|-0~-|-2~-|-2~-|-0~-|-0~-|-2~-|-2~-|-0~-|-0~-|-2~-|-2~-|-0~-|
D|----|----|-0~-|-0~-|-2~-|-3~-|-0~-|-0~-|-2~-|-3~-|-0~-|-0~-|-2~-|-3~-|-0~-|-0~-|
A|----|----|----|-2~-|-3~-|-3~-|----|-2~-|-3~-|-3~-|----|-2~-|-3~-|-3~-|----|-2~-|
E|----|----|----|-3~-|----|-1~-|----|-3~-|----|-1~-|----|-3~-|----|-1~-|----|-3~-|

Pre Chorus: Slight Distortion
Guitar 2 plays first then bass
D|---|---|---|---|---|---|---|---|
A|---|---|---|---|---|---|---|---|
E|---|---|---|---|---|---|---|---|

Chorus: Slight Distortion x2
e--------------------------|--------------------------|
B--------------------------|--------------------------|
G-5--5--5--5-5--5-5--5--5-5|10-10-10-109--9-9--9--9-9-|
D-x--x--x--x-x--x-x--x--x-x|-x--x--x--xx--x-x--x--x-x-|
A-3--3--3--3-3--3-3--3--3-3|-8--8--8--87--7-7--7--7-7-|
E--------------------------|--------------------------|

e--------------------------|--------------------------|
B--------------------------|--------------------------|
G-7--7--7--7-7--7-7--7--7-7|7--7--7--7-7--7-7--7--7-7-|
D-x--x--x--x-x--x-x--x--x-x|x--x--x--x-x--x-x--x--x-x-|
A-5--5--5--5-5--5-5--5--5-5|5--5--5--5-5--5-5--5--5-5-|
E--------------------------|--------------------------|

Verse: Reverb
e---|---|---|---|---|---|---|---|---|---|---|---|---|---|---|---|
B-1~|-1~|-3~|-3~|-1~|-1~|-3~|-3~|-1~|-1~|-3~|-3~|-1~|-1~|-3~|-3~|
G-0~|-2~|-2~|-0~|-0~|-2~|-2~|-0~|-0~|-2~|-2~|-0~|-0~|-2~|-2~|-0~|
D-2~|-3~|-0~|-0~|-2~|-3~|-0~|-0~|-2~|-3~|-0~|-0~|-2~|-3~|-0~|-0~|
A-3~|-3~|---|-2~|-3~|-3~|---|-2~|-3~|-3~|---|-2~|-3~|-3~|---|-2~|
E---|-1~|---|-3~|---|-1~|---|-3~|---|-1~|---|-3~|---|-1~|---|-3~|

Pre Chorus: Distortion
Bass plays first
D|---|---|---|---|3--3--3--3-3--3-3--3--3-3|12-12-12-1212-1212-12-1212|
A|---|---|---|---|3--3--3--3-3--3-3--3--3-3|12-12-12-1212-1212-12-1212|
E|---|---|---|--\\1--1--1--1-1--1-1--1--1-1|10-10-10-1010-1010-10-1010|

D|7--7--7--7-7--7-7--7--7-7|5--5--5--5-5--5-5--5-5-5-5|
A|7--7--7--7-7--7-7--7--7-7|5--5--5--5-5--5-5--5-5-5-5|
E|5--5--5--5-5--5-5--5--5-5|3--3--3--3-3--3-3--3-3-3-3|

Chorus: Slight Distortion x2
e--------------------------|--------------------------|
B--------------------------|--------------------------|
G-5--5--5--5-5--5-5--5--5-5|10-10-10-109--9-9--9--9-9-|
D-x--x--x--x-x--x-x--x--x-x|-x--x--x--xx--x-x--x--x-x-|
A-3--3--3--3-3--3-3--3--3-3|-8--8--8--87--7-7--7--7-7-|
E--------------------------|--------------------------|

e--------------------------|--------------------------|
B--------------------------|--------------------------|
G-7--7--7--7-7--7-7--7--7-7|7--7--7--7-7--7-7--7--7-7-|
D-x--x--x--x-x--x-x--x--x-x|x--x--x--x-x--x-x--x--x-x-|
A-5--5--5--5-5--5-5--5--5-5|5--5--5--5-5--5-5--5--5-5-|
E--------------------------|--------------------------|

Solo: Rhythm
e---------------------------|
B---------------------------|
G---------------------------|      not so sure, might be drop D
D-7--3--5--3--7--3--5--3--5-|   7--0--5--3--7--0--5--3
A-7--3--5--3--7--3--5--3--5-|   7--0--5--3--7--0--5--3
E-5--1--3--1--5--1--3--1--3-|   7--0--5--3--7--0--5--3

Chorus: Distortion

e|---|---|---|--------------------------|--------------------------|
B|---|---|---|--------------------------|--------------------------|
G|---|---|-5~|-5--5--5--5-5--5-5--5--5-5|10-10-10-109--9-9--9--9-9-|
D|---|---|-x-|-x--x--x--x-x--x-x--x--x-x|-x--x--x--xx--x-x--x--x-x-|
A|---|---|-3~|-3--3--3--3-3--3-3--3--3-3|-8--8--8--87--7-7--7--7-7-|
E|---|---|---|--------------------------|--------------------------|

e--------------------------|--------------------------|
B--------------------------|--------------------------|
G-7--7--7--7-7--7-7--7--7-7|7--7--7--7-7--7-7--7--7-7-|
D-x--x--x--x-x--x-x--x--x-x|x--x--x--x-x--x-x--x--x-x-|
A-5--5--5--5-5--5-5--5--5-5|5--5--5--5-5--5-5--5--5-5-|
E--------------------------|--------------------------|

Chorus till end




Guitar 2

Intro: Clean

E|----|-----------------|-------3--------3-|-------3~-------|-----3-----------|
B|----|-------3~--------|-----3--------3---|-----3----3---3-|---3---3-----3---|
G|rest|-----0-----0---0-|---2--------0-----|---2--------2---|-0---------0---0-|
D|-x8-|---2---------2---|-3--------2-------|-0--------------|-----------------|
A|----|-3---------------|------------------|----------------|---------2-------|
E|----|-----------------|------------------|----------------|-----------------|

e|-----------------|-------3--------3-|-------3~-------|-3~-|
B|-------3~--------|-----3--------3---|-----3----3---3-|-3~-|
G|-----0-----0---0-|---2--------0-----|---2--------2---|-0~-|
D|---2---------2---|-3--------2-------|-0--------------|----|
A|-3---------------|------------------|----------------|----|
E|-----------------|------------------|----------------|----|

Pre Chorus:  Clean x2 Palm Mute
D|3--3--3--3-3--3-3--3--3-3|12-12-12-1212-1212-12-1212|
A|3--3--3--3-3--3-3--3--3-3|12-12-12-1212-1212-12-1212|
E|1--1--1--1-1--1-1--1--1-1|10-10-10-1010-1010-10-1010|

D|7--7--7--7-7--7-7--7--7-7|5--5--5--5-5--5-5--5-5-5-5|
A|7--7--7--7-7--7-7--7--7-7|5--5--5--5-5--5-5--5-5-5-5|
E|5--5--5--5-5--5-5--5--5-5|3--3--3--3-3--3-3--3-3-3-3|

Chorus: Clean C F Dm G x2
E-0--0--0--0-0--0-0--0--0-0|1--1--1--1-1--1-1--1--1-1-|
B-1--1--1--1-1--1-1--1--1-1|1--1--1--1-1--1-1--1--1-1-|
G-0--0--0--0-0--0-0--0--0-0|2--2--2--2-2--2-2--2--2-2-|
D-2--2--2--2-2--2-2--2--2-2|3--3--3--3-3--3-3--3--3-3-|
A-3--3--3--3-3--3-3--3--3-3|3--3--3--3-3--3-3--3--3-3-|
E--------------------------|1--1--1--1-1--1-1--1--1-1-|

E-1--1--1--1-1--1-1--1--1-1|3--3--3--3-3--3-3--3--3-3-|
B-3--3--3--3-3--3-3--3--3-3|2--2--2--2-2--2-2--2--2-2-|
G-2--2--2--2-2--2-2--2--2-2|0--0--0--0-0--0-0--0--0-0-|
D-0--0--0--0-0--0-0--0--0-0|0--0--0--0-0--0-0--0--0-0-|
A--------------------------|2--2--2--2-2--2-2--2--2-2-|
E--------------------------|3--3--3--3-3--3-3--3--3-3-|

Verse: Same as chorus but palm mute

Pre Chorus: Slight Distortion
Bass plays first
E|----steady 16ths
B|----|-----|----|
G|rest|-9---|-12-|
D|-4x-|-x-3x|-x--|
A|----|-7---|-10-|
E|----|-----|----|

Chorus: Slight Distortion

Solo: x2
E|--------------------------|13-13-13-1313-1313-13-1313|
B|13-13-13-1313-1313-13-1313|--------------------------|

E|---------------------------2nd time do 888666555 twice|
B|12-12-12-1212-1212-12-1212|8888886666665555----------|

Clean chorus till end





Comments


Popular Blue October tabs & chords
Hate Me 4 Bass Tabs
Tomorrow Bass Tabs
Blue Does Chords
Breakfast After 10 Chords
Chameleon Boy Chords
18th Floor Balcony Tabs
21st Tabs
Chameleon Boy Tabs
Let It Go Tabs
The End 2 Tabs


Song lyrics



↑ Back to top | Tablatures and chords are parodies/interpretations of the original songs. You may use it for private study, scholarship, research or language learning purposes only
© 2014 AZChords.com Contact us | Privacy policy | DMCA | Add/correct tabs | Request tabs | Top 50 tabs