>
 >
Calling You 1

Calling You 1 Guitar Tabs

Blue October - Calling You 1 chords, tabs, tablatures, lyrics

Guitar lessons | Add/correct | Request | Top 50 tabs Artists:  A B C D E F G H I J K L M N O P Q R S T U V W X Y Z 0-9

Calling You 1 Guitar Tabs – Blue October

CD, Sheet music, Poster

Do you like Calling You 1? Share with your friends now
ChordsTabsTabs v2Tabs v3Tabs v4Ukulele
Blue October
Calling You
History For Sale

Guitar 1

Intro: doesn't play

Verse:
E-0------------------------------------------|
B-----1------1---1------3----0----3--3--3--3-|
G----0--0-0-----2--2-2----2---------0--0--0--|
D---2----------3--------0---3-----0---0------|
A-3------3----------3------------------------|
E------------1-------------------------------|

E-0----------------------------------|
B-----1------1---1------3----0----3~-|
G----0--0-0-----2--2-2----2----------|
D---2----------3--------0---3-----0~-|
A-3------3----------3----------------|
E------------1-----------------------|

Pre-Chorus: twice
E-1--1--1---1--1--1-1--1-1-1--1--1---1--1--1-1--1-1-|
B-1--1--1---1--1--1-1--1-1-3--3--3---3--3--3-3--3-3-|
G-2--2--2---2--2--2-2--2-2-2--2--2---2--2--2-2--2-2-|
D-3--3--3---3--3--3-3--3-3-0--0--0---0--0--0-0--0-0-|
A-3--3--3---3--3--3-3--3-3--------------------------|
E-1--1--1---1--1--1-1--1-1--------------------------|

E-0--0--0---0--0--0-0--0-0-3--3--3---3--3--3-3--3-3-|
B-1--1--1---1--1--1-1--1-1-2--2--2---2--2--2-2--2-2-|
G-2--2--2---2--2--2-2--2-2-0--0--0---0--0--0-0--0-0-|
D-2--2--2---2--2--2-2--2-2-0--0--0---0--0--0-0--0-0-|
A-0--0--0---0--0--0-0--0-0-2--2--2---2--2--2-2--2-2-|
E--------------------------3--3--3---3--3--3-3--3-3-|

Chorus: twice
E-0--0--0--0-0--0-0--0--0-0-1--1--1--1-1--1-1--1--1-1-|
B-1--1--1--1-1--1-1--1--1-1-1--1--1--1-1--1-1--1--1-1-|
G-0--0--0--0-0--0-0--0--0-0-2--2--2--2-2--2-2--2--2-2-|
D-2--2--2--2-2--2-2--2--2-2-3--3--3--3-3--3-3--3--3-3-|
A-3--3--3--3-3--3-3--3--3-3-3--3--3--3-3--3-3--3--3-3-|
E---------------------------1--1--1--1-1--1-1--1--1-1-|

E-1--1--1--1-1--1-1--1--1-1-3--3--3--3-3--3-3--3--3-3-|
B-3--3--3--3-3--3-3--3--3-3-2--2--2--2-2--2-2--2--2-2-|
G-2--2--2--2-2--2-2--2--2-2-0--0--0--0-0--0-0--0--0-0-|
D-0--0--0--0-0--0-0--0--0-0-0--0--0--0-0--0-0--0--0-0-|
A---------------------------2--2--2--2-2--2-2--2--2-2-|
E---------------------------3--3--3--3-3--3-3--3--3-3-|

Verse: 4 times
E------------|
B-1--1--3--3-|
G-0--2--2--0-|
D-2--3--0--0-|
A-3--3-----2-|
E----1-----3-|

Pre-Chorus: first part bass
E---------------------------------|
B---------------------------------|
G-9-9-9-9-9-9-9-9-9-9-9-9-9-9-9-9-|
D-x-x-x-x-x-x-x-x-x-x-x-x-x-x-x-x-|
A-7-7-7-7-7-7-7-7-7-7-7-7-7-7-7-7-|
E---------------------------------|

E-----------------------------------------|
B-----------------------------------------|
G-9-9-9-9-9-9-9-9-12-12-12-12-12-12-12-12-|
D-x-x-x-x-x-x-x-x--x--x--x--x--x--x--x--x-|
A-7-7-7-7-7-7-7-7-10-10-10-10-10-10-10-10-|
E-----------------------------------------|

Chorus: twice
E-0--0--0--0-0--0-0--0--0-0-1--1--1--1-1--1-1--1--1-1-|
B-1--1--1--1-1--1-1--1--1-1-1--1--1--1-1--1-1--1--1-1-|
G-0--0--0--0-0--0-0--0--0-0-2--2--2--2-2--2-2--2--2-2-|
D-2--2--2--2-2--2-2--2--2-2-3--3--3--3-3--3-3--3--3-3-|
A-3--3--3--3-3--3-3--3--3-3-3--3--3--3-3--3-3--3--3-3-|
E---------------------------1--1--1--1-1--1-1--1--1-1-|

E-1--1--1--1-1--1-1--1--1-1-3--3--3--3-3--3-3--3--3-3-|
B-3--3--3--3-3--3-3--3--3-3-2--2--2--2-2--2-2--2--2-2-|
G-2--2--2--2-2--2-2--2--2-2-0--0--0--0-0--0-0--0--0-0-|
D-0--0--0--0-0--0-0--0--0-0-0--0--0--0-0--0-0--0--0-0-|
A---------------------------2--2--2--2-2--2-2--2--2-2-|
E---------------------------3--3--3--3-3--3-3--3--3-3-|

Break: twice
E-0-0-0-0-0-0-0-0-1-1-1-1-1-1-1-1-|
B-1-1-1-1-1-1-1-1-3-3-3-3-3-3-3-3-|
G-2-2-2-2-2-2-2-2-2-2-2-2-2-2-2-2-|
D-2-2-2-2-2-2-2-2-0-0-0-0-0-0-0-0-|
A-0-0-0-0-0-0-0-0-----------------|
E---------------------------------|

E-3-3-3-3-3-3-3-3-0-0-0-0-0-0-0-0-|
B-2-2-2-2-2-2-2-2-1-1-1-1-1-1-1-1-|
G-0-0-0-0-0-0-0-0-0-0-0-0-0-0-0-0-|
D-0-0-0-0-0-0-0-0-2-2-2-2-2-2-2-2-|
A-2-2-2-2-2-2-2-2-3-3-3-3-3-3-3-3-|
E-3-3-3-3-3-3-3-3-----------------|

Then

E-0-0-0-0-0-0-0-0-|
B-1-1-1-1-1-1-1-1-|
G-0-0-0-0-0-0-0-0-|
D-2-2-2-2-2-2-2-2-|
A-3-3-3-3-3-3-3-3-|
E-----------------|

Chorus: to the end
E-0--0--0--0-0--0-0--0--0-0-1--1--1--1-1--1-1--1--1-1-|
B-1--1--1--1-1--1-1--1--1-1-1--1--1--1-1--1-1--1--1-1-|
G-0--0--0--0-0--0-0--0--0-0-2--2--2--2-2--2-2--2--2-2-|
D-2--2--2--2-2--2-2--2--2-2-3--3--3--3-3--3-3--3--3-3-|
A-3--3--3--3-3--3-3--3--3-3-3--3--3--3-3--3-3--3--3-3-|
E---------------------------1--1--1--1-1--1-1--1--1-1-|

E-1--1--1--1-1--1-1--1--1-1-3--3--3--3-3--3-3--3--3-3-|
B-3--3--3--3-3--3-3--3--3-3-2--2--2--2-2--2-2--2--2-2-|
G-2--2--2--2-2--2-2--2--2-2-0--0--0--0-0--0-0--0--0-0-|
D-0--0--0--0-0--0-0--0--0-0-0--0--0--0-0--0-0--0--0-0-|
A---------------------------2--2--2--2-2--2-2--2--2-2-|
E---------------------------3--3--3--3-3--3-3--3--3-3-|

Guitar 2:

Inro/Verse:
E------------------------------------------|
B-3--3--1--1--3--3--1--1--3--3--1--1--3--3-|
G-2--0--0--2--2--0--0--2--2--0--0--2--2--0-|
D-0--0--2--3--0--0--2--3--0--0--2--3--0--0-|
A----2--3--3-----2--3--3-----2--3--3-----2-|
E----3-----1-----3-----1-----3-----1-----3-|

Pre-Chorus: guitar 1 first half
E---------------------|
B---------------------|
G---------------------|
D-3~~--12~~--7~~--5~~-|
A-3~~--12~~--7~~--5~~-|
E-1~~--10~~--5~~--3~~-|

Chorus:
E---------------------------------------------------------|
B---------------------------------------------------------|
G-5--5--5--5-5--5-5--5--5-5-10--10--10--10-9--9-9--9--9-9-|
D-x--x--x--x-x--x-x--x--x-x--x---x---x---x-x--x-x--x--x-x-|
A-3--3--3--3-3--3-3--3--3-3--8---8---8---8-7--7-7--7--7-7-|
E---------------------------------------------------------|

E-----------------------------------------------------|
B-----------------------------------------------------|
G-7--7--7--7-7--7-7--7--7-7-7--7--7--7-7--7-7--7--7-7-|
D-x--x--x--x-x--x-x--x--x-x-x--x--x--x-x--x-x--x--x-x-|
A-5--5--5--5-5--5-5--5--5-5-5--5--5--5-5--5-5--5--5-5-|
E-----------------------------------------------------|

Verse:
E-----------------------------------------------|
B-1--1--3--3--1--1--3--3--1--1--3--3-1--1--3--3-|
G-0--2--2--0--0--2--2--0--0--2--2--0-0--2--2--0-|
D-2--3--0--0--2--3--0--0--2--3--0--0-2--3--0--0-|
A-3--3-----2--3--3-----2--3--3-----2-3--3-----2-|
E----1-----3-----1-----3-----1-----3----1-----3-|

Pre Chorus: first part bass
E---------------------|
B---------------------|
G---------------------|
D-3~~--12~~--7~~--5~~-|
A-3~~--12~~--7~~--5~~-|
E-1~~--10~~--5~~--3~~-|

Chorus:
E---------------------------------------------------------|
B---------------------------------------------------------|
G-5--5--5--5-5--5-5--5--5-5-10--10--10--10-9--9-9--9--9-9-|
D-x--x--x--x-x--x-x--x--x-x--x---x---x---x-x--x-x--x--x-x-|
A-3--3--3--3-3--3-3--3--3-3--8---8---8---8-7--7-7--7--7-7-|
E---------------------------------------------------------|

E-----------------------------------------------------|
B-----------------------------------------------------|
G-7--7--7--7-7--7-7--7--7-7-7--7--7--7-7--7-7--7--7-7-|
D-x--x--x--x-x--x-x--x--x-x-x--x--x--x-x--x-x--x--x-x-|
A-5--5--5--5-5--5-5--5--5-5-5--5--5--5-5--5-5--5--5-5-|
E-----------------------------------------------------|

Break:
E---------------------------|
B---------------------------|
G-2-----------2-------------|
D-2--3--5--3--2--3--5--3--5-|
A-0--3--5--3--0--3--5--3--5-|
E----1--3--1-----1--3--1--3-|

Chorus: skip first half then come in with the first note held
E---------------------------------------------------------|
B---------------------------------------------------------|
G-5--5--5--5-5--5-5--5--5-5-10--10--10--10-9--9-9--9--9-9-|
D-x--x--x--x-x--x-x--x--x-x--x---x---x---x-x--x-x--x--x-x-|
A-3--3--3--3-3--3-3--3--3-3--8---8---8---8-7--7-7--7--7-7-|
E---------------------------------------------------------|

E-----------------------------------------------------|
B-----------------------------------------------------|
G-7--7--7--7-7--7-7--7--7-7-7--7--7--7-7--7-7--7--7-7-|
D-x--x--x--x-x--x-x--x--x-x-x--x--x--x-x--x-x--x--x-x-|
A-5--5--5--5-5--5-5--5--5-5-5--5--5--5-5--5-5--5--5-5-|
E-----------------------------------------------------|

Questions?





Comments


Popular Blue October tabs & chords
Blue Skies Chords
Picking Up The Pieces Chords
Schizophrenia Chords
18th Floor Balcony 4 Tabs
Dirt Room Tabs
Graceful Dancing Tabs
Say It Tabs
18th Floor Balcony Ukulele
The Answer Ukulele
Weight Of The World Ukulele


Song lyrics



↑ Back to top | Tablatures and chords are parodies/interpretations of the original songs. You may use it for private study, scholarship, research or language learning purposes only
© 2014 AZChords.com Contact us | Privacy policy | DMCA | Add/correct tabs | Request tabs | Top 50 tabs