>
 >
18th Floor Balcony 1

18th Floor Balcony 1 Guitar Tabs

Blue October - 18th Floor Balcony 1 chords, tabs, tablatures, lyrics

Guitar lessons | Add/correct | Request | Top 50 tabs Artists:  A B C D E F G H I J K L M N O P Q R S T U V W X Y Z 0-9

18th Floor Balcony 1 Guitar Tabs – Blue October

CD, Sheet music, Poster

Do you like 18th Floor Balcony 1? Share with your friends now
ChordsTabsTabs v2Tabs v3Tabs v4Tabs v5Ukulele
CD version of:

18th Floor Balcony




The tuning is standard, With a capo on the 2nd fret.


Intro:
	E: ---------------------|
	B: -------1-------------|
	G: -----4---4---0-------|
	D: ---2-------2---------|
	A: -0-------------------|
	E: ---------------------|


Verse 1:
	E: --------------------------------------------------------------|
	B: -------3----------------3--------------3--------------1-------|
	G: -----0---0---0--------0---0---0------0---0---0------4---4---4-|
	D: ---0-------0--------0-------0------0-------0------2-------2---|
	A: --------------------------------3---------------0-------------|
	E: -3---------------0--------------------------------------------|

	E: ----------------|
	B: --------1-------|
	G: ------4---4---4-|
	D: ----2-------2---|
	A: --0-------------|
	E: ----------------|

	E: --------------------------------------------------------------|
	B: -------3----------------3--------------3--------------1-------|
	G: -----0---0---0--------0---0---0------0---0---0------4---4---4-|
	D: ---0-------0--------0-------0------0-------0------2-------2---|
	A: --------------------------------3---------------0-------------|
	E: -3---------------0--------------------------------------------|

	E: --------------------------------------------------------------|
	B: -------3----------------3--------------3--------------1-------|
	G: -----0---0---0--------0---0---0------0---0---0------4---4---4-|
	D: ---0-------0--------0-------0------0-------0------2-------2---|
	A: --------------------------------3---------------0-------------|
	E: -3---------------0--------------------------------------------|

	E: -----------------|
	B: --------1--------|
	G: ------4---4------|
	D: ----2----------0-|
	A: --0----------2---|
	E: -----------------|





Chorus:
	E: ---------------------------------------------------------------|
	B: -------3---------------3--------------1--------------1---------|
	G: -----0---0---0-------0---0---0------4---4---4------4---4-------|
	D: ---0-------0-------0-------0------2-------2------2-----------0-|
	A: -3---------------2--------------0--------------0----------2----|
	E: ---------------------------------------------------------------|

	E: ---------------------------------------------------------------|
	B: -------3---------------3--------------1--------------1---------|
	G: -----0---0---0-------0---0---0------4---4---4------4---4---4---|
	D: ---0-------0-------0-------0------2-------2------2-------2-----|
	A: -3---------------2--------------0--------------0---------------|
	E: ---------------------------------------------------------------|





Verse 2(A) (x4):
	E: --------------------------------------------------------------|
	B: -------3----------------3--------------3--------------1-------|
	G: -----0---0---0--------0---0---0------0---0---0------4---4---4-|
	D: ---0-------0--------0-------0------0-------0------2-------2---|
	A: --------------------------------3---------------0-------------|
	E: -3---------------0--------------------------------------------|

Verse 2(B) (x1):
	E: ---------------------------------------------------------------|
	B: -------3----------------3--------------3--------------1--------|
	G: -----0---0---0--------0---0---0------0---0---0------4---4------|
	D: ---0-------0--------0-------0------0-------0------2----------0-|
	A: --------------------------------3---------------0----------2---|
	E: -3---------------0---------------------------------------------|





(Chorus)




Pre-Bridge:
	E: --------------------------------------------------------------|
	B: -------3----------------3--------------3--------------3-------|
	G: -----0---0---0--------0---0---0------0---0---0------0---0---0-|
	D: ---0-------0--------0-------0------0-------0------0-------0---|
	A: ------------------2--------------3---------------3------------|
	E: -3------------------------------------------------------------|

Bridge (A):  During the quiet part(no guitar) you can (Optional) play: (x2)
	E: -----------------|	E: ---------------------------------------|
	B: -1--3--3--3------|	B: -------1---------3----------3--------3-|
	G: -4--0--0--0------|OR G: -----4---------0---------0---------0---|
	D: ----------0------|	D: ---2---------0---------0---------0-----|
	A: -0--2--3---------|	A: -0---------2---------3---------5-------|
	E: -----------------|	E: ---------------------------------------|

Bridge (B):
	E: --------------------------------------------------------------|
	B: -------3----------------3--------------3--------------1-------|
	G: -----0---0---0--------0---0---0------0---0---0------4---4---4-|
	D: ---0-------0--------0-------0------0-------0------2-------2---|
	A: --------------------------------3---------------0-------------|
	E: -3---------------0--------------------------------------------|

	E: --------------------------------------------------------------|
	B: -------3----------------3--------------3--------------1-------|
	G: -----0---0---0--------0---0---0------0---0---0------4---4-----|
	D: ---0-------0--------0-------0------0-------0------2---------0-|
	A: --------------------------------3---------------0---------2---|
	E: -3---------------0--------------------------------------------|






Chorus (Secondary)
	(x2)
	E: ---------------------------------------------------------------|
	B: -------3---------------3--------------1--------------1---------|
	G: -----0---0---0-------0---0---0------4---4---4------4---4-------|
	D: ---0-------0-------0-------0------2-------2------2-----------0-|
	A: -3---------------2--------------0--------------0----------2----|
	E: ---------------------------------------------------------------|


	(x2)
	E: ---------------------------------------------------------------|
	B: -------3---------------3--------------1--------------1---------|
	G: -----0---0---0-------0---0---0------4---4---4------4---4---4---|
	D: ---0-------0-------0-------0------2-------2------2-------2-----|
	A: -3---------------2--------------0--------------0---------------|
	E: ---------------------------------------------------------------|





Ending:
	E: --------------------------------------------------------------|
	B: -------3----------------3--------------3--------------1-------|
	G: -----0---0---0--------0---0---0------0---0---0------4---4---4-|
	D: ---0-------0--------0-------0------0-------0------2-------2---|
	A: --------------------------------3---------------0-------------|
	E: -3---------------0--------------------------------------------|

	E: --------------------------------------------------------------|
	B: -------3----------------3--------------3--------------1-------|
	G: -----0---0---0--------0---0---0------0---0---0------4---4---4-|
	D: ---0-------0--------0-------0------0-------0------2-------2---|
	A: --------------------------------3---------------0-------------|
	E: -3---------------0--------------------------------------------|

	E: ---------------------------------|
	B: -------1--------------1----------|
	G: -----4---4---4------4---4---4----|
	D: ---2-------2------2-------2------|
	A: -0--------------0--------------0-|
	E: ---------------------------------|





Comments


Popular Blue October tabs & chords
James Bass Tabs
The 21st Bass Tabs
Tomorrow Bass Tabs
Chameleon Boy Chords
The Follow Through Chords
A Quiet Mind Tabs
Clumsy Card House Tabs
Independently Happy Tabs
Inner Glow Tabs
Should Be Loved Tabs


Song lyrics



↑ Back to top | Tablatures and chords are parodies/interpretations of the original songs. You may use it for private study, scholarship, research or language learning purposes only
© 2014 AZChords.com Contact us | Privacy policy | DMCA | Add/correct tabs | Request tabs | Top 50 tabs