» » »

Voyeur Tabs (ver.3)

Artists:  A B C D E F G H I J K L M N O P Q R S T U V W X Y Z # 

Voyeur Tabs (ver.3)

*Blink 182*
Rating:
0/5 (0 votes)

Hard to play? Try these video lessons and learn fast.
                PROPS GO TO: Mark Waldron

|----------------|-----------------|---------------|----------------|
|----------------|-----------------|---------------|----------------|
|----------------|-----------------|---------------|----------------|
|-10-x-x-x-x-x-x-|-x-x-x-x-x-x-x-x-|-7-x-x-x-x-x-x-|-10-x-x-x-x-x-x-|
|-10-x-x-x-x-x-x-|-x-x-x-x-x-x-x-x-|-7-x-x-x-x-x-x-|--8-x-x-x-x-x-x-|
|--8-x-x-x-x-x-x-|-x-x-x-x-x-x-x-x-|-5-x-x-x-x-x-x-|--8-x-x-x-x-x-x-|

|----------------------|-------------------------|---------------|
|----------------------|-------------------------|---------------|
|----------------------|-------------------------|---------------|
|-10-10-10-10-10-10-10-|-10-10-10-10-10-10-10-10-|-7-7-7-7-7-7-7-|
|-10-10-10-10-10-10-10-|-10-10-10-10-10-10-10-10-|-7-7-7-7-7-7-7-|
|--8--8--8--8--8--8--8-|--8--8--8--8--8--8--8--8-|-5-5-5-5-5-5-5-|

|---------------|----------------------------------|-----------------|
|---------------|----------------------------------|-----------------|
|---------------|----------------------------------|-5-5-5-5-5-5-5-5-|
|-3-3-3-3-3-3-3-|-5-5-5-5-5-5-5-5--3-3-3-3-3-3-3-3-|-5-5-5-5-5-5-5-5-|
|-3-3-3-3-3-3-3-|-5-5-5-5-5-5-5-5--3-3-3-3-3-3-3-3-|-3-3-3-3-3-3-3-3-|
|-1-1-1-1-1-1-1-|-3-3-3-3-3-3-3-3--1-1-1-1-1-1-1-1-|-----------------|

|----------------------------------|-----------------|
|----------------------------------|-----------------|
|----------------------------------|-----------------|
|-3-3-3-3-3-3-3-3--5-5-5-5-5-5-5-5-|-3-3-3-3-3-3-3-3-|
|-3-3-3-3-3-3-3-3--5-5-5-5-5-5-5-5-|-3-3-3-3-3-3-3-3-|
|-1-1-1-1-1-1-1-1--3-3-3-3-3-3-3-3-|-1-1-1-1-1-1-1-1-|

PM-------|   PM------|
|------------------------|
|------------------------|
|------------------------|
|-2-2-2-2--3--2-2-2-2--5-| (2x the second time around)
|-3-3-3-3-----3-3-3-3--5-|
|----------------------3-|

|---------------------------------|
|-1-1-1-1-1-1-1-1-1-1-1-1-1-1-1-1-|
|---------------------------------|
|---------------------------------|
|---------------------------------|
|---------------------------------|

That's pretty much all the notes. Just figure out the placement.
            
Hard to play? Try these video lessons and learn fast. | Correct




comments powered by Disqus
↑ Back to top | Tablatures and chords are parodies/interpretations of the original songs. You may use it for private study, scholarship, research or language learning purposes only