>
 >
Voyeur 2

Voyeur 2 Guitar Tabs

*Blink 182* - Voyeur 2 chords, tabs, tablatures, lyrics

Guitar lessons | Add/correct | Request | Top 50 tabs Artists:  A B C D E F G H I J K L M N O P Q R S T U V W X Y Z 0-9

Voyeur 2 Guitar Tabs – *Blink 182*

CD, Sheet music, Poster

Do you like Voyeur 2? Share with your friends now
ChordsTabsTabs v2Tabs v3
blink 182
voyuer
e|---------------------------------------------------------------------------|
B|---------------------------------------------------------------------------|
G|---------------------------------------------------------------------------|
D|--10--X-X-X-X-X-X-X-X-X-X-X-X-X-X---7--X-X-X-X-X-X---10--X-X-X-X-X-X-------|
A|--10--X-X-X-X-X-X-X-X-X-X-X-X-X-X---7--X-X-X-X-X-X---8---X-X-X-X-X-X-------|
E|--8---X-X-X-X-X-X-X-X-X-X-X-X-X-X---5--X-X-X-X-X-X---8---X-X-X-X-X-X-------|
       And   when the day ends I'm    sure she feels   sorrow

e|---------------------------------------------------------------------------|
B|---------------------------------------------------------------------------|
G|---------------------------------------------------------------------------|
D|--10--X-X-X-X-X-X-X-X-X-X-X-X-X-X---7--X-X-X-X-X-X---10--X-X-X-X-X-X-------|
A|--10--X-X-X-X-X-X-X-X-X-X-X-X-X-X---7--X-X-X-X-X-X---8---X-X-X-X-X-X-------|
E|--8---X-X-X-X-X-X-X-X-X-X-X-X-X-X---5--X-X-X-X-X-X---8---X-X-X-X-X-X-------|
       The   lonely  guy  I  am  I    wait for her to change

e|---------------------------------------------------------------------------|
B|---------------------------------------------------------------------------|
G|---------------------------------------------------------------------------|
D|--10--10-10-10-10-10-10-10-10-10-10-10-10-10-10--7---7--7--7--7--7--7------|
A|--10--10-10-10-10-10-10-10-10-10-10-10-10-10-10--7---7--7--7--7--7--7------|
E|--8---8--8--8--8--8--8--8--8--8--8--8--8--8--8---5---5--5--5--5--5--5------|
        I've  been    here    two   days,    Ill   sure    be      here

e|---------------------------------------------------------------------------|
B|---------------------------------------------------------------------------|
G|---------------------------------------------------------------------------|
D|--3--3-3-3-3-3-3---10--10-10-10-10-10-10-10-10-10-10-10-10-10-10-----------|
A|--3--3-3-3-3-3-3---10--10-10-10-10-10-10-10-10-10-10-10-10-10-10-----------|
E|--1--1-1-1-1-1-1---8---8--8--8--8--8--8--8--8--8--8--8--8--8--8------------|
    Tomorrow.        I'd    eat    her    all    if    she   were        

e|---------------------------------------------------------------------------|
B|---------------------------------------------------------------------------|
G|---------------------------------------------------------------------------|
D|--7--7-7-7-7-7-7-7---3--3-3-3-3-3-3-3-3-3-3-3-3-3-3-3-3-3-3-3-3-3-3--------|
A|--7--7-7-7-7-7-7-7---3--3-3-3-3-3-3-3-3-3-3-3-3-3-3-3-3-3-3-3-3-3-3--------|
E|--5--5-5-5-5-5-5-5---1--1-1-1-1-1-1-1-1-1-1-1-1-1-1-1-1-1-1-1-1-1-1--------|
    On  my  dinner     plate                               and I wish
                                                  P.M......      P.M...... 
e|----------------------------------------------------------------------------|
B|----------------------------------------------------------------------------|
G|----------------------------------------------------------------------------|
D|--5---5--5--5--5--5--5---3---3--3--3--3--3--3---2--2--2-2--3---2--2--2-2--5-|
A|--5---5--5--5--5--5--5---3---3--3--3--3--3--3---3--3--3-3------3--3--3-3--5-|
E|--3---3--3--3--3--3--3---1---1--1--1--1--1--1-----------------------------3-|
      I   wish     she'd   be    more   kind      now

e|----------------------------------------------------------------------------|
B|------------------------------------------------5---5--5--5--5--5--5--------|
G|------------------------------------------------5---5--5--5--5--5--5--------|
D|--5---5--5--5--5--5--5---3---3--3--3--3--3--3---5---5--5--5--5--5--5--------|
A|--5---5--5--5--5--5--5---3---3--3--3--3--3--3---3---3--3--3--3--3--3--------|
E|--3---3--3--3--3--3--3---1---1--1--1--1--1--1-------------------------------|
       I'm   out   of      luck   cause    the    shades  are   pulled 

e|----------------------------------------------------------------------------|
B|----------------------------------------------------5--5-5-5-5-5-5----------|
G|----------------------------------------------------5--5-5-5-5-5-5----------|
D|--5--5-5-5-5-5-5---5--5-5-5-5-5-5---3--3-3-3-3-3-3--5--5-5-5-5-5-5----------|
A|--5--5-5-5-5-5-5---5--5-5-5-5-5-5---3--3-3-3-3-3-3--3--3-3-3-3-3-3----------|
E|--3--3-3-3-3-3-3---3--3-3-3-3-3-3---1--1-1-1-1-1-1--------------------------|
    down.            I've   seen     everything there is   to    be    
                                                      
e|-----------------------------------------------------|
B|-----------------------------------------------------|
G|-----------------------------------------------------|
D|--5--5-5-5-5-5-5---5--5-5-5-5-5-5---3--3-3-3-3-3-3---|
A|--5--5-5-5-5-5-5---5--5-5-5-5-5-5---3--3-3-3-3-3-3---|
E|--3--3-3-3-3-3-3---3--3-3-3-3-3-3---1--1-1-1-1-1-1---|
    shown.            I followed her  all  the   way
   P.M.........       P.M........       P.M.........       P.M........
e|--------------------------------------------------------------------------:|
B|--------------------------------------------------------------------------:|
G|--------------------------------------------------------------------------:|
D|--2--2---2--2---3---2--2---2--2---5----2--2---2--2---3---2--2---2--2---5--:|
A|--3--3---3--3-------3--3---3--3---5----3--3---3--3-------3--3---3--3---3--:|
E|----------------------------------3------------------------------------3--:|
    home.                           (Repeat All That *** Again With 2nd Verse)
                                               And After That Play The Bridge
   Bridge:
e|---------------------------------------------------------------------------|
B|--5--5-5-5-5-5-5-----------------------------------------------------------|
G|--5--5-5-5-5-5-5-----------------------------------------------------------|
D|--5--5-5-5-5-5-5---3--3-3-3-3-3-3---5--5-5-5-5-5-5---3--3-3-3-3-3-3--------|
A|--3--3-3-3-3-3-3---3--3-3-3-3-3-3---5--5-5-5-5-5-5---3--3-3-3-3-3-3--------|
E|-------------------1--1-1-1-1-1-1---3--3-3-3-3-3-3---1--1-1-1-1-1-1--------|
      I   bet this   last time's the  one   time too   many.......
              (In the background guitar 2 is playing the 1st fret on string B)
                                Then Play All That *** Before This Over Again
                                Then Play The Bridge Again With This Ending          

e|---------------------------------------------------------------------------|
B|--5--5-5-5-5-5-5-----------------------------------------------------------|
G|--5--5-5-5-5-5-5-----------------------------------------------------------|
D|--5--5-5-5-5-5-5---3--3-3-3-3-3-3---5--5-5-5-5-5-5-5-5-5-5-5-5-5-5---3--3--|
A|--3--3-3-3-3-3-3---3--3-3-3-3-3-3---5--5-5-5-5-5-5-5-5-5-5-5-5-5-5---3--3--|
E|-------------------1--1-1-1-1-1-1---3--3-3-3-3-3-3-3-3-3-3-3-3-3-3---1--1--|


e|------------------------------------------|  
B|----------5--5--------------------5-------|
G|----------5--5--------------------5-------|
D|--3--3----5--5----5--5----3--3----5----5--|
A|--3--3----3--3----5--5----3--3----3----5--|
E|--1--1------------3--3----1--1---------3--|
                                Repeat 3 times

e|----------------------------------------------|  
B|----------5--5-----------------------5--------|
G|----------5--5-----------------------5--------|
D|--3--3----5--5----5--5----5---3--3---5---5----|
A|--3--3----3--3----5--5----5---3--3---3---5----|
E|--1--1------------3--3----3---1--1-------3----|

  P.M.........       P.M........       P.M.........       P.M........
e|-----------------------------------------------------------------------------|
B|-----------------------------------------------------------------------------|
G|--------------------------------------------------------------------------5--|
D|--2--2---2--2---3---2--2---2--2---5----2--2---2--2---3---2--2---2--2---5--5--|
A|--3--3---3--3-------3--3---3--3---5----3--3---3--3-------3--3---3--3---5--3--|
E|----------------------------------3------------------------------------3-----|





Comments


Popular *Blink 182* tabs & chords
Apple Shampoo 3 Bass Tabs
Carousel 12 Bass Tabs
Adams Song 4 Chords
Down 2 Chords
All The Small Things 6 Tabs
Damnit Intro Tabs
Dumpweed 7 Tabs
Family Reunion Tabs
Give Me One Good Reason 1 Tabs
Josie Tabs


Song lyrics



↑ Back to top | Tablatures and chords are parodies/interpretations of the original songs. You may use it for private study, scholarship, research or language learning purposes only
© 2014 AZChords.com Contact us | Privacy policy | DMCA | Add/correct tabs | Request tabs | Top 50 tabs