» » »

T.V. Tabs (ver.1)

Artists:  A B C D E F G H I J K L M N O P Q R S T U V W X Y Z # 

T.V. Tabs (ver.1)

*Blink 182*
Rating:
0/5 (0 votes)

Hard to play? Try these video lessons and learn fast.
                "(1)
blink 182
tv
/=slide
e|-------------------------------------------------------------------------|
B|-------------------------------------------------------------------------|
G|-------------------------------------------------------------------------|
D|-------------------------------------------------------------------------|
A|-----3-----3---3-/-----8-----8---8-/-----3-----3---3-/-----8-----8---8-/-|
E|-1-1---1-1---1---/-6-6---6-6---6---/-1-1---1-1---1---/-6-6---6-6---6---/-|
                                                                 x2
then the second time play this:
e|-------------------------------------------------------------------------------|
B|-------------------------------------------------------------------------------|
G|-------------------------------------------------------------------------------|
D|-------------------------------------------------------------------------------|
A|-----3-----3---3-/-----8-----8---8-/-------15-------15----15-/-----8-----8---8-|
E|-1-1---1-1---1---/-6-6---6-6---6---/-13-13----13-13----13----/-6-6---6-6---6---|

e|-----------------------------------------------------------------------|
B|-----------------------------------------------------------------------|
G|-----------------------------------------------------------------------|
D|-------------------------------------------------------------------8-8-|
A|-3-3-3-3-/-6-6-6-6-/-3-3-3-3-/-8-8-8-8-/-3-3-3-3-/-8-8-8-8-/-5-5-/-8-8-|
E|-1-1-1-1-/-8-8-8-8-/-5-5-5-5-/-6-6-6-6-/-1-1-1-1-/-6-6-6-6-/-3-3-/-6-6-|

e|----------------------------------|
B|----------------------------------|
G|----------------------------------|
D|-3-3-3-3-3-3-3-3--8-8-8-8-8-8-8-8-|
A|-3-3-3-3-3-3-3-3--8-8-8-8-8-8-8-8-|
E|-1-1-1-1-1-1-1-1--6-6-6-6-6-6-6-6-|
  (play w/ dist.)		  x4

e|----------------------------------------|
B|----------------------------------------|
G|----------------------------------------|
D|-3-3-3-3--5-5-5-5--7-7-7-7--11-11-11-11-|
A|-3-3-3-3--5-5-5-5--7-7-7-7--11-11-11-11-|
E|-1-1-1-1--3-3-3-3--5-5-5-5--9--9--9--9--|
"            
Hard to play? Try these video lessons and learn fast. | Correct




comments powered by Disqus
↑ Back to top | Tablatures and chords are parodies/interpretations of the original songs. You may use it for private study, scholarship, research or language learning purposes only