» » »

*Blink 182*, T.V. Bass tabs (ver.1)

Artists:  A B C D E F G H I J K L M N O P Q R S T U V W X Y Z # 

T.V. Bass tabs (ver.1)

*Blink 182* Tabs
 Rating:
4/5 (4 votes)
T.V. lessons Tabs too difficult? Try these video lessons and learn fast
                (1)
'>' means 8 times

CHESHIRE CAT VERSION :

Intro
G|---5--5-5/--10--10-10/|X3|-----17----17--17/--10--10-10-
D|-33-33-3-/88--88--8--/|X3|-1515--1515--15--/88--88--8---
A|--------------------------------------------------------
E|--------------------------------------------------------

G|5555-10101010-8888-10101010-|X2|
D|3333--8-8-8-8-6666--8-8-8-8-|X2|
A|----------------------------|X2|
E|----------------------------|X2|

Main Riff
G|------|X4|----------------------
D|---8>-|X4|-----8888--------8888-
A|-8>---|X4|-8888----10101010-----
E|------|X4|----------------------

Bridge
G|----------------|X4
D|---------7>5>---|X4
A|-------------8>-|X4
E|-88887777-------|X4


BUDDHA VERSION
Intro
G|---5--5-5/--10--10-10/|X3|-----17----17--17/--10--10-10-
D|-33-33-3-/88--88--8--/|X3|-1515--1515--15--/88--88--8---
A|--------------------------------------------------------
E|--------------------------------------------------------

G|5555-10101010-8888-10101010-|X2|
D|3333--8-8-8-8-6666--8-8-8-8-|X2|
A|----------------------------|X2|
E|----------------------------|X2|

Main Riff
G|------|X4|----------------------
D|---8>-|X4|-----8888--------8888-
A|-8>---|X4|-8888----10101010-----
E|------|X4|----------------------

Riff before the 1st verse & Outro
G|-----------
D|------7>8>-
A|-8>10>-----
E|-----------

Bridge
G|----------------|X4
D|---------7>5>---|X4
A|-------------8>-|X4
E|-88887777-------|X4
            
Submit corrections

comments powered by Disqus
↑ Back to top | *Blink 182* Bass for T.V.. Lyrics for acoustic guitar and electric guitar. Tablatures and chords are parodies/interpretations of the original songs. You may use it for private study, scholarship, research or language learning purposes only