>
 >
Touchdown Boy 2

Touchdown Boy 2 Guitar Tabs

*Blink 182* - Touchdown Boy 2 chords, tabs, tablatures, lyrics

Guitar lessons | Add/correct | Request | Top 50 tabs Artists:  A B C D E F G H I J K L M N O P Q R S T U V W X Y Z 0-9

Touchdown Boy 2 Guitar Tabs – *Blink 182*

CD, Sheet music, Poster

Do you like Touchdown Boy 2? Share with your friends now
TabsTabs v2Tabs v3
INTRO: x5 (The amount of strums isn't tabbed because it took too long        
           but listen to the song and you will figure it out).

e|------------------------------------------------------------------|
B|------------------------------------------------------------------|
G|--999--8----------------------------------------------------------|
D|--999--8--999--7--6--2--------------------------------------------|
A|--777--6--999--7--6--2--------------------------------------------|
E|----------777--5--4--0--------------------------------------------|

RIFF 1: x2

e|------------------------------------------------------------------|
B|------------------------------------------------------------------|
G|-9----------------------------------------------------------------|
D|-9-6-7-9--11-11-6-7-9--9-9-6-7-9--7-7-6-7-9-7-6-------------------|
A|-7--------11-11--------9-9--------7-7-----------------------------|
E|-----------9--9--------7-7--------5-5-----------------------------|

RIFF 2: x2 (Not sure if correct number of strums either but listen to      
            the song and you will figure it out again)

e|------------------------------------------------------------------|
B|------------------------------------------------------------------|
G|-9999--------------------------------9999-------------------------|
D|-9999-9-7-6--9999-9-7-6--7777-6-7-6--9999-6-7-6-------------------|
A|-7777--------9999--------7777--------7777-------------------------|
E|-------------7777--------5555-------------------------------------|

INTERLUDE: (The first part is probably wrong but it sounds ok)

e|------------------------------------------------------------------|
B|------------------------------------------------------------------|
G|------------------------------------------------------------------|
D|---9--9-9---7--7-7-(3x)---9999999---------------------------------|
A|-7--7-----7--7------------9999999---------------------------------|
E|--------------------------7777777---------------------------------|

VERSE: x4

e|------------------------------------------------------------------|
B|------------------------------------------------------------------|
G|--9---------------------------------------------------------------|
D|--9-6-6-7-9--11-6-6-7-9--9-6-6-7-9--7-6-6-7-9---------------------|
A|--7----------11----------9----------7-----------------------------|
E|--------------9----------7----------5-----------------------------|
     
CHORUS: x2 (Once again number of strums isn't tabbed outbut you get  
            the idea)

e|------------------------------------------------------------------|
B|------------------------------------------------------------------|
G|-9----------------------------------------------------------------|
D|-9--9--7--2-------------------------------------------------------|
A|-7--9--7--2-------------------------------------------------------|
E|----7--5--0-------------------------------------------------------|


Then play: INTRO x5 I think
Then songs goes into little commentary
Then play: VERSE x2
Then play: CHORUS x2
Then play: INTRO x4 but the 5th time there is a little variation

VARIATION: x1

e|------------------------------------------------------------------|
B|------------------------------------------------------------------|
G|--999--8----------------------------------------------------------|
D|--999--8--999--7--6--4--2-----------------------------------------|
A|--777--6--999--7--6--4--2-----------------------------------------|
E|----------777--5--4--2--0-----------------------------------------|

Thats it. Have Fun. E-mail me if you have any questions.





Comments


Popular *Blink 182* tabs & chords
Anthem Bass Tabs
Dammit 2 Bass Tabs
Alone Chords
Boring Chords
Feeling This Drum Tabs
Dammit Live 2 Tabs
Dogs Eating Dogs 2 Tabs
Shut Up Intro Tabs
Stay Together For The Kids Actually Tabs
Stockholm Syndrome Tabs


Song lyrics



↑ Back to top | Tablatures and chords are parodies/interpretations of the original songs. You may use it for private study, scholarship, research or language learning purposes only
© 2014 AZChords.com Contact us | Privacy policy | DMCA | Add/correct tabs | Request tabs | Top 50 tabs