» » »

*Blink 182*, Touchdown Boy Tabs (ver.2)

Artists:  A B C D E F G H I J K L M N O P Q R S T U V W X Y Z # 

Touchdown Boy Tabs (ver.2)

*Blink 182* Tabs
Rating:
0/5 (0 votes)
Touchdown Boy lessons Tabs too difficult? Try these video lessons and learn fast
                Alright...the other tabs for this song werent good. well the one was ok
but not 100% so im gonna make a tab that i think is 100% accurate.

Touchdown Boy

G |--9-9-9-9--9-9-9-8-8-8-4-4-4-4-4-4-4----------------|
D |--9-9-9-9--9-9-9-8-8-8-4-4-4-4-4-4-4--7-7-7-6-6-6-2-| 
A |--7-7-7-7--7-7-7-6-6-6-2-2-2-2-2-2-2--7-7-7-6-6-6-2-| 
E |--------------------------------------5-5-5-4-4-4-0-| 
                                                      2x
G |-----------9-9-9-8-8-8-4-4-4-4-4-4-4----------------| 
D |--2-2-2-2--9-9-9-8-8-8-4-4-4-4-4-4-4--7-7-7-6-6-6-2-|  
A |--2-2-2-2--7-7-7-6-6-6-2-2-2-2-2-2-2--7-7-7-6-6-6-2-| 
E |--0-0-0-0-----------------------------5-5-5-4-4-4-0-| 

G |--9------------------------------------|
D |--9-6-7-9-9-6-7-9-11-6-7-9-7-6-7-9-7-6-| 2x
A |--7-------9-------11-------7-----------|
E |----------7-------9--------5-----------|

G |------------------------------------------------------|
D |------------------9-9-9-7-6-----------------9-9-9-7-6-|
A |--7-7-7-7-7-7-7-7-------------------------------------|
E |----------------------------7-7-7-7-7-7-7-7-----------|
                                                        2x
G |------------------------------------------------------|
D |------------------9-9-9-7-6-----------------6---7---9-|
A |------------------------------------------------------|
E |--9-9-9-9-9-9-9-9-----------5-5-5-5-5-5-5-5---5---5---|

G |------------------------------------------------------------------|
D |----9-----9-------7-----7-----7-----9-----9-------7-----7-----7---| 2x
A |--7---7-7---7-7-7---7-7---7-7---7-7---7-7---7-7-7---7-7---7-7---7-| end on
E |------------------------------------------------------------------|   B5

G |--9------------------------------------|
D |--9-6-7-9-9-6-7-9-11-6-7-9-7-6-7-9-7-6-| then this is played
A |--7-------9-------11-------7-----------|   for the verses
E |----------7-------9--------5-----------|

G |--9-9-9-9-9-9-9-9-------------------------------------------------|
D |--9-9-9-9-9-9-9-9-9-9-9-9-9-9-9-9-7-7-7-7-7-7-7-7-2-2-2-2-2-2-2-2-| Chorus
A |--7-7-7-7-7-7-7-7-9-9-9-9-9-9-9-9-7-7-7-7-7-7-7-7-2-2-2-2-2-2-2-2-|
E |------------------7-7-7-7-7-7-7-7-5-5-5-5-5-5-5-5-0-0-0-0-0-0-0-0-|

G |--9-9-9-9--9-9-9-8-8-8-4-4-4-4-4-4-4----------------|
D |--x-x-x-x--x-x-x-x-x-x-x-x-x-x-x-x-x--7-7-7-6-6-6-2-|
A |--7-7-7-7--7-7-7-6-6-6-2-2-2-2-2-2-2--x-x-x-x-x-x-x-| 
E |--------------------------------------5-5-5-4-4-4-0-|
                                    After 2nd Chorus 2x
G |-----------9-9-9-8-8-8-4-4-4-4-4-4-4----------------| 
D |--2-2-2-2--x-x-x-x-x-x-x-x-x-x-x-x-x--7-7-7-6-6-6-2-|   
A |--x-x-x-x--7-7-7-6-6-6-2-2-2-2-2-2-2--x-x-x-x-x-x-x-| 
E |--0-0-0-0-----------------------------5-5-5-4-4-4-0-|

G |----------------------|
D |-2--------------------| End
A |-2->>>>>>>>>>>>>>>>---|
E |-0--------------------|
            

comments powered by Disqus
↑ Back to top | *Blink 182* Tabs for Touchdown Boy. Lyrics for acoustic guitar and electric guitar. Tablatures and chords are parodies/interpretations of the original songs. You may use it for private study, scholarship, research or language learning purposes only