» » »

*Blink 182*, Girl Next Door Tabs (ver.3)

Artists:  A B C D E F G H I J K L M N O P Q R S T U V W X Y Z # 

Girl Next Door Tabs (ver.3)

*Blink 182* Tabs
Rating:
0/5 (0 votes)
Girl Next Door lessons Tabs too difficult? Try these video lessons and learn fast
                "(2)
Song- Girl Next Door (original song by- Screeching weasel)
Artist- Blink-182
Demo- Buddha
Guitarist- Tom Delonge

**standard tunning**
e-------------------------------------------------------------
b-------------------------------------------------------------
g-------------------------------------------------------------   
d----------------44444444444444-22222222222222-55555555555555-
a-55555555555555-22222222222222-22222222222222-33333333333333-
e-33333333333333-xxxxxxxxxxxxxx-00000000000000-xxxxxxxxxxxxxx-

e------------------------
b-------------------------
g-------------------------
d-------------------------
a-----232------5555555555-
e-3-5------535------------

(white girl living in the city..)
e------------------------------------------------------------------
b------------------------------------------------------------------
g------------------------------------------------------------------
d----------------44444444444444-22222222222222-xx-5-xx-5-xx-5-xx-5-
a-55555555555555-22222222222222-22222222222222-xx-3-xx-3-xx-3-xx-3-
e-33333333333333-xxxxxxxxxxxxxx-00000000000000---------------------

(and every days the same..)
e---------------------------------
b---------------------------------
g---------------------------------
d---------4444444-2222222-5555555-
a-5555555-2222222-2222222-3333333-
e-3333333-xxxxxxx-0000000-xxxxxxx-

when he sings about her being dead u play this palm muted only once
and the rest is all clean
e-------------------------------------------------------------
b-------------------------------------------------------------
g-------------------------------------------------------------
d----------------44444444444444-22222222222222-55555555555555-
a-55555555555555-22222222222222-22222222222222-33333333333333-
e-33333333333333-xxxxxxxxxxxxxx-00000000000000-xxxxxxxxxxxxxx-

end song like this

e-----------
b-----------
g-----------
d-5-4-2-----
a-3-2-0-5~~-
e-------3~~-
"            

comments powered by Disqus
↑ Back to top | *Blink 182* Tabs for Girl Next Door. Lyrics for acoustic guitar and electric guitar. Tablatures and chords are parodies/interpretations of the original songs. You may use it for private study, scholarship, research or language learning purposes only