» » »

*Blink 182*, Girl Next Door Tabs (ver.2)

Artists:  A B C D E F G H I J K L M N O P Q R S T U V W X Y Z # 

Girl Next Door Tabs (ver.2)

*Blink 182* Tabs
Rating:
0/5 (0 votes)
Girl Next Door lessons Tabs too difficult? Try these video lessons and learn fast
                "(1)
This is my first tab so cut me some slack. 

(Really heavy ditortion)
------------------4-4-4-4-4-4-4-----------------5-5-5-5-5-5-5-5-
--5-5-5-5-5-5-5-5-4-4-4-4-4-4-4-0-0-0-0-0-0-0-0-3-3-3-3-3-3-3-3-
--5-5-5-5-5-5-5-5-2-2-2-2-2-2-2-0-0-0-0-0-0-0-0-3-3-3-3-3-3-3-3-
--3-3-3-3-3-3-3-3---------------2-2-2-2-2-2-2-2-----------------


--0-1-2-1-0---0-5-5-5-5-5-5-5-5----0-1-2-1-0---0-5-5-5-5-5-5-5-5
-3----------3--------------------0-----------3------------------

------------------4-4-4-4-4-4-4---------------------5-----5-----5-----5
--5-5-5-5-5-5-5-5-4-4-4-4-4-4-4-0-0-0-0-0-0-0-0-x-x-3-x-x-3-x-x-3-x-x-3
--5-5-5-5-5-5-5-5-2-2-2-2-2-2-2-0-0-0-0-0-0-0-0-x-x-3-x-x-3-x-x-3-x-x-3
--3-3-3-3-3-3-3-3---------------2-2-2-2-2-2-2-2------------------------
"            
Submit corrections

comments powered by Disqus
↑ Back to top | *Blink 182* Tabs for Girl Next Door. Lyrics for acoustic guitar and electric guitar. Tablatures and chords are parodies/interpretations of the original songs. You may use it for private study, scholarship, research or language learning purposes only