» » »

*Blink 182*, Roller Coaster Tabs (ver.1)

Artists:  A B C D E F G H I J K L M N O P Q R S T U V W X Y Z # 

Roller Coaster Tabs (ver.1)

*Blink 182* Tabs
Rating:
0/5 (0 votes)
Roller Coaster lessons Tabs too difficult? Try these video lessons and learn fast
                PROPS GO TO: Mr.Nice_Guy

BLINK 182 - ROLLERCOASTER
TRACK #8 ON "TAKE OFF YOUR PANTS AND JACKET"
This is easy easy easy...just listen to song for strumming!


Intro:
   (note: Just hold "A" Chord...)
E ----------------------------------------------------------
A -2---2-3-2-------2---2-3-2--------------------------------
D ---2-------2---2---2-------2---2---------2----2----2----2-
G -------------2---------------2----------------------------
B --------------------------------------00---00---00---00---
E ----------------------------------------------------------

E --------------------------------------------------------------------
A --------------------------------------------------------------------
D --2---2---2---2---2---2---2---2----2---2---2----2---2---2---2---2---
G ---------------------------------00--00--00--00-----------00--00----
B 00--00--00--00--00--00--00--00--------------------22--22------------
E --------------------------------------------------------------------

E --------------------------------------------------------------------
A --------------------------------------------------------------------
D --2---2---2---2---2---2---2---2----2---2---2---2---2---2------------
G ---------------------------------00--00--00--00-----------***0------
B 00--00--00--00--00--00--00--00-------------------22--22-------------
E --------------------------------------------------------------------

************RIFF #1************
...X2
E -----------------------------------------------------------------------------
A -----------------------------------------------------------------------------
D -----------------------------------------------------------------------------
G -----------------------------------------------------------------------------
B -4-0-4-5-4-000000---4-0-4-5-4-000000---4-0-4-5-4-000000---4-0-4-5-4-000000---
E -----------------------------------------------------------------------------

...X4
E -----------------------------------------------------------------------------
A -0-000000---5-555555---2-222222---5-555555-----------------------------------
D -2-222222---7-777777---4-444444---7-777777-----------------------------------
G -2-222222---7-777777---4-444444---7-777777-----------------------------------
B -----------------------------------------------------------------------------
E -----------------------------------------------------------------------------

*************RIFF #2************
E -----------------------------------------------------------------------------
A -----------------------------------------------------------------------------
D -----------------------------------------------------------------------------
G -----------------------------------------------------------------------------
B -4-0-4-5-4-000000---4-0-4-5-4-000000---4-0-4-5-4-000000---4-0-4-5-4-000000---
E -----------------------------------------------------------------------------

...X4
E -----------------------------------------------------------------------------
A -0-000000---5-555555---2-222222---5-555555-----------------------------------
D -2-222222---7-777777---4-444444---7-777777-----------------------------------
G -2-222222---7-777777---4-444444---7-777777-----------------------------------
B -----------------------------------------------------------------------------
E -----------------------------------------------------------------------------

...X2
E--------------------------------------------------------------------
A--------------------------------------------------------------------
D---2---2---2---2---2---2---2---2----2---2---2---2---2---2---2---2---
G----------------------------------00--00--00--00----------00--00----
B-00--00--00--00--00--00--00--00-------------------22--22------------
E--------------------------------------------------------------------

*******************************************************************************
Then Travis Plays A Drum Solo...

Then The BASS Solo...(ToM Isn't Playing Anything Right Now)
	(Here It Is)
...X2
E------------------------------------------------------------------------------
A------------------------------------------------------------------------------
D-------------------------------------------------0000000000000000-------------
G-00000000000000000000000000000000---------------------------------------------
E---------------------------------0000000000000000-----------------------------

*******************************************************************************

...X4
E------------------------------------------------------------------------------
A-0-000000---5-555555---2-222222---5-555555------------------------------------
D-2-222222---7-777777---4-444444---7-777777------------------------------------
G-2-222222---7-777777---4-444444---7-777777------------------------------------
B------------------------------------------------------------------------------
E------------------------------------------------------------------------------

...X2
E------------------------------------------------------------------------------
A-00000000000000000000000000000000-5555555555555555-22222222-55555555----------
D-22222222222222222222222222222222-7777777777777777-44444444-77777777----------
G-22222222222222222222222222222222-7777777777777777-44444444-77777777----------
B------------------------------------------------------------------------------
E------------------------------------------------------------------------------

E --------------------------------------
A -2---2-3-2-------2---2-3-2------------
D ---2-------2---2---2-------2---2------
G -------------2---------------2--------
B --------------------------------***0--
E --------------------------------------
			***Hold Last Note
            
Submit corrections

comments powered by Disqus
↑ Back to top | *Blink 182* Tabs for Roller Coaster. Lyrics for acoustic guitar and electric guitar. Tablatures and chords are parodies/interpretations of the original songs. You may use it for private study, scholarship, research or language learning purposes only