» » »

*Blink 182*, Roller Coaster Tabs (ver.3)

Artists:  A B C D E F G H I J K L M N O P Q R S T U V W X Y Z # 

Roller Coaster Tabs (ver.3)

*Blink 182* Tabs
 Rating:
4/5 (4 votes)
Roller Coaster lessons Tabs too difficult? Try these video lessons and learn fast
                Tuning: EADGBE


Riff A
E---------------------------------------------------------
B---------------------------------------------------------
G-6---6-7-6-----------------------------------------------
D---7----------7------------------------------------------
A-----------------0-0-0-----------------------------------
E---------------------------------------------------------

Riff B:  Pt.1       Pt. 2      Pt. 3
E---------------------------------------------------------
B---------------------------------------------------------
G---------------------------------------------------------
D--------------7------------7---------7-------------------
A--------0-0---------5-5----------------------------------
E--------------------------------7-7----------------------

Riff C
E---------------------------------------------------------
B---------------------------------------------------------
G---------------------------------------------------------
D---------------------------------------------------------
A-4-0-4-5-4-0-0-0-0--4-0-4-5-4-0-0-0-0--4-0-4-5-4-0-0-0-2-
E---------------------------------------------------------

Riff C (Cont'd)
E---------------------------------------------------------
B---------------------------------------------------------
G---------------------------------------------------------
D---------------------------------------------------------
A-4-0-4-5-4-0-0-0-0---------------------------------------
E---------------------------------------------------------

Riff D
E---------------------------------------------------------
B---------------------------------------------------------
G------------7-7-7-7-7-------------7-7-7-7-7--------------
D-7-7-7-7-7--7-7-7-7-7--9-9-9-9-9--7-7-7-7-7--------------
A-7-7-7-7-7--5-5-5-5-5--9-9-9-9-9--5-5-5-5-5--------------
E-5-5-5-5-5-------------7-7-7-7-7-------------------------

Riff E
E---------------------------------------------------------
B---------------------------------------------------------
G------7-7-7--------7-7-7---------------------------------
D-7-7-7-7-7-7-9-9-9-7-7-7---------------------------------
A-7-7-7-5-5-5-9-9-9-5-5-5---------------------------------
E-5-5-5-------7-7-7---------------------------------------

Interlude (let Ring)
E---------------------------------------------------------
B---------------------------------------------------------
G---------------------------------------------------------
D-7-------------------------------------------------------
A-7-------------------------------------------------------
E-5-------------------------------------------------------

Riff F
E---------------------------------------------------------
B---------------------------------------------------------
G----------------------7777777777-------77777-------------
D-77777777777777777777-7777777777-99999-77777-------------
A-77777777777777777777-5555555555-99999-55555-------------
E-55555555555555555555------------77777-------------------

Last Chord
E---------------------------------------------------------
B---------------------------------------------------------
G---------------------------------------------------------
D-7-------------------------------------------------------
A-7-------------------------------------------------------
E-5-------------------------------------------------------
            
Submit corrections

comments powered by Disqus
↑ Back to top | *Blink 182* Tabs for Roller Coaster. Lyrics for acoustic guitar and electric guitar. Tablatures and chords are parodies/interpretations of the original songs. You may use it for private study, scholarship, research or language learning purposes only