>
 >
Reckless Abandon 1

Reckless Abandon 1 Guitar Tabs

*Blink 182* - Reckless Abandon 1 chords, tabs, tablatures, lyrics

Guitar lessons | Add/correct | Request | Top 50 tabs Artists:  A B C D E F G H I J K L M N O P Q R S T U V W X Y Z 0-9

Reckless Abandon 1 Guitar Tabs – *Blink 182*

CD, Sheet music, Poster

Do you like Reckless Abandon 1? Share with your friends now
TabsTabs v2Tabs v3
Blink 182 - Reckless Abandon

I TAKE NO CREDIT FOR THE SONG JUST THE TABBING OF IT!

Intro  (Clean, Not Exact Strumming)
|---------------------------------------------------------------------
|---------------------------------------------------------------------
|--4444444444---------------------------------------------------------
|--4444444444---2222222222---66666666666---4444444444---2222222222----
|--2222222222---2222222222---66666666666---4444444444---2222222222----
|---------------0000000000---44444444444---2222222222---0000000000----
On and on, reckless abandon / something's wrong this is goina shock them 
Nothing to hold on to we'll use this song to lead you on...

Main Riff x2
|-----------------------------------------------------------
|-----------------------------------------------------------
|-----------------------------------------------------------
|---1----4--2----1----4--2----1----4--2-----1----1-2--------
|-----2------------2------------2-------------2-------4-----
|-----------------------------------------------------------

Verse x2
|-----------------------------------------------
|-----------------------------------------------
|-44444444444444444444--------------------------
|-44444444444444444444--44444444444444444444----
|-22222222222222222222--44444444444444444444----
|-----------------------22222222222222222222----
I learned a lot today / not sure if I'll get laid 
Not sure if I'll fail or pass / kissed every girl in class
Everybody would waste it all to have a summer that they could call a memory that's full of fun fucked up when it's all done

Chorus (LISTEN FOR EXACT STRUMMING)
|-------------------------------------------------------------------------------
|-------------------------------------------------------------------------------
|4444444444444444---------------------------------------------------------------
|4444444444444444-222222222222-66666666-444444444-22222222222-6666666-444444-2--
|2222222222222222-222222222222-66666666-444444444-22222222222-6666666-444444-2>-
|-----------------000000000000-44444444-222222222-00000000000-4444444-222222-0--
On and on, reckless abandon / something's wrong this is goina shock them 
Nothing to hold on to / we'll use this song to lead you on / 
And break the truth with more bad news / we left a scar size extra large

Main Riff x2
|-----------------------------------------------------------
|-----------------------------------------------------------
|-----------------------------------------------------------
|---1----4--2----1----4--2----1----4--2-----1----1-2--------
|-----2------------2------------2-------------2-------4-----
|-----------------------------------------------------------

Verse x2
|-----------------------------------------------
|-----------------------------------------------
|-44444444444444444444--------------------------
|-44444444444444444444--44444444444444444444----
|-22222222222222222222--44444444444444444444----
|-----------------------22222222222222222222----
Sip a drink of the alcohol / end up kneeling in bathroom stalls 
Eyes are red and my movements show / too high, got vertigo
He took a shit in the bathroom tub / and fed the dog the brownie drugs
Tried hard to not get caught / he fucked a chick in the parking lot

Chorus (LISTEN FOR EXACT STRUMMING)
|-------------------------------------------------------------------------------
|-------------------------------------------------------------------------------
|4444444444444444---------------------------------------------------------------
|4444444444444444-222222222222-66666666-444444444-22222222222-6666666-444444-2--
|2222222222222222-222222222222-66666666-444444444-22222222222-6666666-444444-2>-
|-----------------000000000000-44444444-222222222-00000000000-4444444-222222-0--
On and on, reckless abandon / something's wrong this is goina shock them 
Nothing to hold on to / we'll use this song to lead you on / 
And break the truth with more bad news / we left a scar size extra large

Bridge (Clean) x4
|----------------------
|----------------------
|-4---------8----6-----
|-4>>--2----8>>--6>>---
|-2----2>>--6----4-----
|------0--------------- 
                                                         
(Strummed, Clean, Exact Strumming Not Shown)
|-----------------------------------------------
|-----------------------------------------------
|-44444444444444444444--------------------------
|-44444444444444444444--44444444444444444444----
|-22222222222222222222--44444444444444444444----
|-----------------------22222222222222222222----
Break a window and bust a wall / making fun of your friend's mom 
Turn the music up way too loud / charge the pizza to the house
Everyone would waste it all / To have a summer that they could call 
Memory that's full of fun / Fucked up when it's all done

Chorus (LISTEN FOR EXACT STRUMMING)
|-------------------------------------------------------------------------------
|-------------------------------------------------------------------------------
|4444444444444444--------------------------------------------------------------4
|4444444444444444-222222222222-66666666-444444444-22222222222-6666666-444444-2-4
|2222222222222222-222222222222-66666666-444444444-22222222222-6666666-444444-2>2
|-----------------000000000000-44444444-222222222-00000000000-4444444-222222-0--On and on, reckless abandon / something's wrong this is goina shock them 
Nothing to hold on to / we'll use this song to lead you on / 
And break the truth with more bad news / we left a scar size extra large





Comments


Popular *Blink 182* tabs & chords
Blow Job Bass Tabs
Country Song 2 Bass Tabs
A Letter To Elise 1 Tabs
After Midnight 7 Tabs
Always 1 Tabs
Boxing Day 2 Tabs
I Wont Be Home For Christmas 1 Tabs
Online Songs Tabs
Sometimes 2 Tabs
Stay Together For The Kids Intro Tabs


Song lyrics



↑ Back to top | Tablatures and chords are parodies/interpretations of the original songs. You may use it for private study, scholarship, research or language learning purposes only
© 2014 AZChords.com Contact us | Privacy policy | DMCA | Add/correct tabs | Request tabs | Top 50 tabs