» » »

Reckless Abandon Tabs (ver.3)

Artists:  A B C D E F G H I J K L M N O P Q R S T U V W X Y Z # 

Reckless Abandon Tabs (ver.3)

*Blink 182*
Rating:
0/5 (0 votes)

Hard to play? Try these video lessons and learn fast.
                
*NOTE: Exact Strumming not shown

Intro  (Strummed, Clean, Exact Strumming Not Shown)
-|----------------------------------------------------------------------------
-|----------------------------------------------------------------------------
-|--4--------------------------------------------------------------------------
-|--4----------2------6--------4--------2--------------------------------------
-|--2----------2------6--------4--------2--------------------------------------
-|-------------0------4--------2--------0--------------------------------------
                                                      

Main Riff
-|----------------------------------------------------------------------------
-|----------------------------------------------------------------------------
-|----------------------------------------------------------------------------
-|1----4--2----1----4--2----1-----4--2-----------1---1---2--------------------
-|--2------------2-------------2-------------------2--------4--------(2)------
-|----------------------------------------------------------------------------                                                         
Verse (Strummed, Dist. Exact Strumming Not Shown)
-|----------------------------------------------------------------------------
-|----------------------------------------------------------------------------
-|-4444-----------------------------------------------------------------------
-|-4444-4444----------xx44----------------------------------------------------
-|-2222-4444----------xx44----------------------------------------------------
-|------2222----------xx22----------------------------------------------------

Chorus (Strummed, Dist. Exact Strumming Not Shown)          
-|----------------------------------------------------------------------------
-|----------------------------------------------------------------------------
-|-4444-----------------------------------------------------------------------
-|-4444----2222---66-------44------2222----66------44-----2222----------------
-|-2222----2222---66-------44------2222----66------44-----2222----------------
-|---------0000---44-------22------0000----44------22-----0000----------------
            
Bridge 1 (Clean) 
-|----------------------------------------------------------------------------
-|----------------------------------------------------------------------------
-|-4------8--6----------------------------------------------------------------
-|-4--2---8--6----------------------------------------------------------------
-|-2--2---6--4----------------------------------------------------------------
-|----0-----------------------------------------------------------------------   
                                                         
Bridge 2 (Strummed, Clean, Exact Strumming Not Shown)
-|----------------------------------------------------------------------------
-|----------------------------------------------------------------------------
-|-4444-----------------------------------------------------------------------
-|-4444--4444-----------------------------------------------------------------
-|-2222--4444-----------------------------------------------------------------
-|-------2222----------------------------------------------------------------- 
                                 

Order:
Intro x1
Main Riff x2
Verse x2
Chorus x1
Main Riff x2
Verse x2
Chorus x1
Bridge 1 x4
Bridge 2 x2
Chorus x1
            
Hard to play? Try these video lessons and learn fast. | Correct




comments powered by Disqus
↑ Back to top | Tablatures and chords are parodies/interpretations of the original songs. You may use it for private study, scholarship, research or language learning purposes only