» » »

*Blink 182*, Please Take Me Home Tabs (ver.1)

Artists:  A B C D E F G H I J K L M N O P Q R S T U V W X Y Z # 

Please Take Me Home Tabs (ver.1)

*Blink 182* Tabs
 Rating:
4/5 (4 votes)
Please Take Me Home lessons Tabs too difficult? Try these video lessons and learn fast
1
                PROPS GO TO: joebob

great song here's the tabs and look for more tabs from me!


Standed tuning.
Intro : "Oh no it happened again"
e|----------------------------------------------------|
B|----------------------------------------------------| 6x
G|--8-8-8-8-8-8-8-8-8-8-8-8-8-8-8-8--4-4-4-4-4-4-4-4--|
D|--X-X-X-X-X-X-X-X-X-X-X-X-X-X-X-X--X-X-X-X-X-X-X-X--|
A|--6-6-6-6-6-6-6-6-6-6-6-6-6-6-6-6--2-2-2-2-2-2-2-2--|
E|----------------------------------------------------|

Pre Chorus: "She's Unstoppable..."
e|----------------------------------------------|
B|----------------------------------------------|
G|--4-4-4-4-4-----------------------------------|
D|--4-4-4-4-4--4-4-4-4-4--6-6-6-6-6--4-4-4-4-4--|
A|--2-2-2-2-2--4-4-4-4-4--6-6-6-6-6--4-4-4-4-4--|
E|-------------2-2-2-2-2--4-4-4-4-4--2-2-2-2-2--|

 "Wrong"
e|-------------------------------------------------------|
B|-------------------------------------------------------|
G|-----------------------------------3-3-3-3-3-3-3-3-----|
D|--2-2-2-2-2-2-2-2-2-2-2-2-2-2-2-2--3-3-3-3-3-3-3-3--4--|
A|--2-2-2-2-2-2-2-2-2-2-2-2-2-2-2-2--1-1-1-1-1-1-1-1--4--|
E|--0-0-0-0-0-0-0-0-0-0-0-0-0-0-0-0-------------------2--|

Chorus: "Please Take, Me Home..."
E|--------------------------------------|
B|--------------------------------------| 2x
G|--4-4-4-4--3-3-3-3--------------------|
D|--4-4-4-4--3-3-3-3--6-6-6-6--2-2-2-2--|
A|--2-2-2-2--1-1-1-1--6-6-6-6--2-2-2-2--|
E|--------------------4-4-4-4--0-0-0-0--|

Verse: "I hope, hope that it lasts"
e|----------------------------------------------------|
B|----------------------------------------------------| 4x
G|--8-8-8-8-8-8-8-8-8-8-8-8-8-8-8-8--4-4-4-4-4-4-4-4--|
D|--X-X-X-X-X-X-X-X-X-X-X-X-X-X-X-X--X-X-X-X-X-X-X-X--|
A|--6-6-6-6-6-6-6-6-6-6-6-6-6-6-6-6--2-2-2-2-2-2-2-2--|
E|----------------------------------------------------|

Pre Chorus: "She's Unstoppable..."
e|----------------------------------------------|
B|----------------------------------------------|
G|--4-4-4-4-4-----------------------------------|
D|--4-4-4-4-4--4-4-4-4-4--6-6-6-6-6--4-4-4-4-4--|
A|--2-2-2-2-2--4-4-4-4-4--6-6-6-6-6--4-4-4-4-4--|
E|-------------2-2-2-2-2--4-4-4-4-4--2-2-2-2-2--|

 "Wrong"
e|-------------------------------------------------------|
B|-------------------------------------------------------|
G|-----------------------------------3-3-3-3-3-3-3-3-----|
D|--2-2-2-2-2-2-2-2-2-2-2-2-2-2-2-2--3-3-3-3-3-3-3-3--4--|
A|--2-2-2-2-2-2-2-2-2-2-2-2-2-2-2-2--1-1-1-1-1-1-1-1--4--|
E|--0-0-0-0-0-0-0-0-0-0-0-0-0-0-0-0-------------------2--|

Chorus: "Please Take, Me Home..."
e|--------------------------------------|
B|--------------------------------------| 4x
G|--4-4-4-4--3-3-3-3--------------------|
D|--4-4-4-4--3-3-3-3--6-6-6-6--2-2-2-2--|
A|--2-2-2-2--1-1-1-1--6-6-6-6--2-2-2-2--|
E|--------------------4-4-4-4--0-0-0-0--|

Interlude: "why did we have to go date"
e|----------------------|
B|----------------------| 4x
G|----------------------|
D|--4-4--6-6--8-8--9-9--|
A|--2-2--4-4--6-6--7-7--|
E|----------------------|

  (play first 3 notes 8 times)
e|--------------------------------|
B|--------------------------------| 2x
G|-------------------------9---9--|
D|--4-X8-6-x8--8-x8--9-9-9---9-9--|
A|--2----4-----6-----7-7-7--------|
E|--------------------------------|
 PM ----------------------          

 "Let go!"
e|--------------------------------------|
B|--------------------------------------| 2x
G|--4-4-4-4--3-3-3-3--8-8-8-8--6-6-4-6--|
D|--x-x-x-x--x-x-x-x--x-x-x-x--x-x-x-x--|
A|--2-2-2-2--1-1-1-1--6-6-6-6--4-4-2-4--|
E|--------------------------------------|

  (listen for the timing on this part.) 
e|--------------------------------------------------|
B|--------------------------------------------------| 2x
G|--8-8-8-8-8-8--8-8-8-8-8---8-8-8-8-8--4--4-4-4-4--|
D|--X-X-X-X-X-X--X-X-X-X-X---X-X-X-X-X--X--X-X-X-X--|
A|--6-6-6-6-6-6--6-6-6-6-6---6-6-6-6-6--2--2-2-2-2--|
E|--------------------------------------------------|

e|-----------------------------------|
B|-----------------------------------|
G|-----------------------------------|
D|--4-4-4-4-4-4-4-4-4-4-4-4-4-4-4-4--|
A|--4-4-4-4-4-4-4-4-4-4-4-4-4-4-4-4--|
E|--2-2-2-2-2-2-2-2-2-2-2-2-2-2-2-2--|
 PM -------------------------------

Chorus: "Please Take, Me Home..."
E|--------------------------------------|
B|--------------------------------------| 2x
G|--4-4-4-4--3-3-3-3--------------------|
D|--4-4-4-4--3-3-3-3--6-6-6-6--2-2-2-2--|
A|--2-2-2-2--1-1-1-1--6-6-6-6--2-2-2-2--|
E|--------------------4-4-4-4--0-0-0-0--|

Outro
e|----------------------------------------------------|
B|----------------------------------------------------| 1x
G|--8-8-8-8-8-8-8-8-8-8-8-8-8-8-8-8--4-4-4-4-4-4-4-4--|
D|--X-X-X-X-X-X-X-X-X-X-X-X-X-X-X-X--X-X-X-X-X-X-X-X--|
A|--6-6-6-6-6-6-6-6-6-6-6-6-6-6-6-6--2-2-2-2-2-2-2-2--|
E|----------------------------------------------------|

e|---------------------------------------------|
B|---------------------------------------------| 
G|--8-8-8-8-8-8-8-8-8-8-8-8-8-8-8-8------------|
D|--X-X-X-X-X-X-X-X-X-X-X-X-X-X-X-X---------2--|
A|--6-6-6-6-6-6-6-6-6-6-6-6-6-6-6-6---------2--|
E|-----------------------------------2-2-2--0--|
                                   PM-----
            
Submit corrections

comments powered by Disqus
↑ Back to top | *Blink 182* Tabs for Please Take Me Home. Lyrics for acoustic guitar and electric guitar. 1 Tablatures and chords are parodies/interpretations of the original songs. You may use it for private study, scholarship, research or language learning purposes only