>
 >
Please Take Me Home 2

Please Take Me Home 2 Guitar Tabs

*Blink 182* - Please Take Me Home 2 chords, tabs, tablatures, lyrics

Guitar lessons | Add/correct | Request | Top 50 tabs Artists:  A B C D E F G H I J K L M N O P Q R S T U V W X Y Z 0-9

Please Take Me Home 2 Guitar Tabs – *Blink 182*

CD, Sheet music, Poster

Do you like Please Take Me Home 2? Share with your friends now
TabsTabs v2Tabs v3
Intro. Gtr. 2 slightly dist.
G|4/888888888888888888888888-44444444-888888888888888888888888-44444444|
D|x/xxxxxxxxxxxxxxxxxxxxxxxx-xxxxxxxx-xxxxxxxxxxxxxxxxxxxxxxxx-xxxxxxxx|
A|2/666666666666666666666666-22222222-666666666666666666666666-22222222|

Double-Time Feel Gtr. 1 (dist.) Play 2 times
 PM. . . . . . . . . . . . . . . . . . . . . . . . . . . . . . . . . . . . .
D|44444444-66666666----------------------44444444-66666666------------------|
A|22222222-44444444-66666666-22222222----22222222-44444444-66666666-22222222|
E|------------------44444444-00000000----------------------44444444-00000000|

Double-Time Feel Gtr. 2 (slightly dist.) Play 2 times
G|888888888888888888888888-44444444-888888888888888888888888-44444444|
D|xxxxxxxxxxxxxxxxxxxxxxxx-xxxxxxxx-xxxxxxxxxxxxxxxxxxxxxxxx-xxxxxxxx|
A|666666666666666666666666-22222222-666666666666666666666666-22222222|

Verse Gtr. 1 & 2 (dist.)                                                    Let ring.
G|------------44444-----------------------------------------------33333333----------|
D|22222-------44444-------66666-------44444-----2222222222222222--33333333--4-------|
A|22222-------22222-------66666-------44444-----2222222222222222--11111111--4-------|
E|00000-------------------44444-------22222-----0000000000000000------------2-------|

Chorus Gtr. 1 & 2 (dist.)                                               Let ring . .
G|44444444--33333333----------------------44444444--33333333------------------------|
D|44444444--33333333--66666666--22222222--44444444--33333333--66666666--2-----------|
A|22222222--11111111--66666666--22222222--22222222--11111111--66666666--2-----------|
E|--------------------44444444--00000000----------------------44444444--0-----------|

Gtr. 1 & 2 repeat Double-Time Feel and Verse

Chorus Gtr. 1 & 2 (dist.) Play 3 times        Gtr. 1 & 2 (dist.) 4th time   let ring.
G|44444444--33333333--------------------|    |44444444--33333333--------------------|
D|44444444--33333333--66666666--22222222|    |44444444--33333333--66666666--2-------|
A|22222222--11111111--66666666--22222222|    |22222222--11111111--66666666--2-------|
E|--------------------44444444--00000000|    |--------------------44444444--0-------|

Interlude Gtr. 1
   Let ring. .
G|-4---------| 
D|-X---------|
A|-2---------|

Double-Time Feel Gtr. 1                +                                       +
  *  P.M. . . . . . . . . . . . . . . . . . . . . . . . . . . . . . . . . . . . . .
G|4-|------------------------------------------------------------------------------|
D|4-|44444444--66666666--88888888--99999999--44444444--66666666--88888888--99999999|
A|2-|22222222--44444444--66666666--77777777--22222222--44444444--66666666--77777777|
  * vol. swell 
      
+ Fill Gtr. 2
A|-7-7h9-7-|

Double-Time Feel Gtr. 2
G|44444444--33333333--88888888--6666-4-666--44444444--33333333--88888888--66666666|
D|xxxxxxxx--xxxxxxxx--xxxxxxxx--xxxx-x-xxx--xxxxxxxx--xxxxxxxx--xxxxxxxx--xxxxxxxx|
A|22222222--11111111--66666666--4444-2-444--22222222--11111111--66666666--44444444|

Double-Time Feel Gtr. 2 cont.                                   
G|8-8--88--8--8--88--8--8--88--4-44444444---8-8--88--8--8--88--8-8--88--4-44444444|
D|x-x--xx--x--x--xx--x--x--xx--x-xxxxxxxx---x-x--xx--x--x--xx--x-x--xx--x-xxxxxxxx|
A|6-6--66--6--6--66--6--6--66--2-22222222---6-6--66--6--6--66--6-6--66--2-22222222|

Dbl-Time Feel Gtr. 1 (play 2 times w/ Gtr.2)                       
G|44444444--33333333----------------------44444444--33333333--------------------|
D|44444444--33333333--66666666--22222222--44444444--33333333--66666666--22222222|
A|22222222--11111111--66666666--22222222--22222222--11111111--66666666--22222222|
E|--------------------44444444--00000000----------------------44444444--00000000|

Interlude Gtr. 1
  P.M. . . . . . .
A|4444444444444444|
E|2222222222222222|

Outro. Gtr. 1 play 3 times Gtr 2. (play 2 times) Gtr. 1 4th time           P.M. Ring.
G|44444444--33333333--------------------|       G|44444444--33333333----------------|
D|44444444--33333333--66666666--22222222|       D|44444444--33333333--6666-------2--|
A|22222222--11111111--66666666--22222222|       A|22222222--11111111--6666-------2--|
E|--------------------44444444--00000000|       E|--------------------4444--000--0--|

Outro. Gtr. 2 3rd time                          let ring.
G|8888888888888888--44444444--8888888888888888--4-------|
D|xxxxxxxxxxxxxxxx--xxxxxxxx--xxxxxxxxxxxxxxxx--x-------|
A|6666666666666666--22222222--6666666666666666--2-------|





Comments


Popular *Blink 182* tabs & chords
Dont Leave Me 3 Bass Tabs
Family Next Door Bass Tabs
Always 5 Tabs
Carousel 7 Tabs
Dammit Riff Tabs
Enthused 1 Tabs
Romeo And Rebecca Intro Tabs
Stockholm Syndrome 2 Tabs
Time To Break Up Tabs
Transvestite Tabs


Song lyrics



↑ Back to top | Tablatures and chords are parodies/interpretations of the original songs. You may use it for private study, scholarship, research or language learning purposes only
© 2014 AZChords.com Contact us | Privacy policy | DMCA | Add/correct tabs | Request tabs | Top 50 tabs