» » »

Party Song Bass tabs (ver.2)

Artists:  A B C D E F G H I J K L M N O P Q R S T U V W X Y Z # 

Party Song Bass tabs (ver.2)

*Blink 182*
Rating:
0/5 (0 votes)

Hard to play? Try these video lessons and learn fast.
                (2)

Riff #1
G|--------------------------------------|
D|-----------222-222-----------222-222--|  (3x)
A|--222-222-----------444-444-----------|
E|--------------------------------------|

Riff #2
G|--------------------------------------------------|
D|-----------222-222-----------222-444--------------|
A|--222-222-----------444-444-----------222-222-22--|
E|--------------------------------------------------|

Riff #1
G|--------------------------------------|
D|-----------222-222-----------222-222--|   (3x)
A|--222-222-----------444-444-----------|
E|--------------------------------------|

Riff #2
G|--------------------------------------------------|
D|-----------222-222-----------222-444--------------|
A|--222-222-----------444-444-----------222-222-22--|
E|--------------------------------------------------|

Riff #3
G|-------------------------------|
D|--4--2-1----2-1----2-1------1--|
A|---------2------2------2--4----|
E|-------------------------------|

Riff #4
G|------------------------------|
D|-----------------------22222--|
A|--22222--44444--22222---------|
E|------------------------------|

Riff #5
G|---------------------------------------|
D|-----------------------2---------------|
A|--22222--44444--22222---------------2--|
E|---------------------------------------|

Riff #6
G|---------------------|
D|--2-1--------2-1-----|   (4x)
A|------44---------42--|
E|---------------------|

Riff #1
G|--------------------------------------|
D|-----------222-222-----------222-222--|  (3x)
A|--222-222-----------444-444-----------|
E|--------------------------------------|

Riff #2
G|--------------------------------------------------|
D|-----------222-222-----------222-444--------------|
A|--222-222-----------444-444-----------222-222-22--|
E|--------------------------------------------------|

Riff #3
G|-------------------------------|
D|--4--2-1----2-1----2-1------1--|
A|---------2------2------2--4----|
E|-------------------------------|

Riff #5
G|---------------------------------------|
D|-----------------------2---------------|
A|--22222--44444--22222---------------2--|
E|---------------------------------------|

Riff #6
G|---------------------|
D|--2-1--------2-1-----|  (6x)
A|------44---------42--|
E|---------------------|
            
Hard to play? Try these video lessons and learn fast. | Correct




comments powered by Disqus
↑ Back to top | Tablatures and chords are parodies/interpretations of the original songs. You may use it for private study, scholarship, research or language learning purposes only