» » »

Party Song Tabs (ver.3)

Artists:  A B C D E F G H I J K L M N O P Q R S T U V W X Y Z # 

Party Song Tabs (ver.3)

*Blink 182*
Rating:
0/5 (0 votes)

Hard to play? Try these video lessons and learn fast.
                "(2)
-------------
----9--6--9--
-9--9--6--9--
-9--7--4--7--
-7-----------

Verse
Chords (End of verse)
--------------------
--------------------
----9--6--9--11-----
-9--9--6--9--11--9--
-9--7--4--7--9---9--
-7---------------7--

Chorus
-----------------------------------------------
-----------------------------------------------
----------------------------------------------- then
-----------------------------------------------
-9--7--6-----7--6-----7--6-----7--6------------
----------7--------7--------7--------7--7--9---
Muted
---------------------------
---------------------------
-----9--6--9-----9--6--9--- then
--9--9--6--9--9--9--6--9---
--9--7--4--7--9--7--4--7---
--7-----------7------------

-----------------------------------------------------------
-----------------------------------------------------------
-----------------------------------------------------------
-----------------------------------------------------------
--9-7-6---7-6-----7-6---7-6-----7-6---7-6-----7-6---7-7----
--------9-----9-7-----9-----9-7-----9-----9-7-----9-----9-7
"            
Hard to play? Try these video lessons and learn fast. | Correct




comments powered by Disqus
↑ Back to top | Tablatures and chords are parodies/interpretations of the original songs. You may use it for private study, scholarship, research or language learning purposes only