» » »

Its Obvious Tabs (ver.4)

Artists:  A B C D E F G H I J K L M N O P Q R S T U V W X Y Z # 

Its Obvious Tabs (ver.4)

*Blink 182*
Rating:
0/5 (0 votes)

Hard to play? Try these video lessons and learn fast.
                Tuning: 1 ½ Steps Down


Guitar 1: Distorted
Guitar 2: Slightly Distorted
Guitar 3: Acoustic



Intro: (Guitar 1)
C#|-----------------------------|
G#|-----------------------------|
E |------------5~~~5~5~~~5~~~~~~|
B |--5~~~5~~~~~5~~~5~5~~~5~~~~~~| x2
F#|--2~~~2~~~0-3~~~3~3~~~3~~~~~~|
C#|--0~~~0~~~0-3~~~3~3~~~3~~~~~~|

Intro: (Guitar 1 & 2)
C#|-----------------------------|
G#|-----------------------------|
E |------------5~~~5~5~~~5~~~~~~|
B |--5~~~5~~~~~5~~~5~5~~~5~~~~~~| x4
F#|--2~~~2~~~0-3~~~3~3~~~3~~~~~~|
C#|--0~~~0~~~0-3~~~3~3~~~3~~~~~~|



Verse: (Guitar 1)
C#|------------------------------------------------------------------|
G#|------------------------------------------------------------------|
E |--5~~~~~~~~~~~~~~~~~~~~~~~~---------------------------------------|
B |--5~~~~~~~~~~~~~~~~~~~~~~~~---------------------------------------| 
F#|--3~~~~~~~~~~~~~~~~~~~~~~~~---------------------------------------|
C#|--3~~~~~~~~~~~~~~~~~~~~~~~~---------------------------------------|

Verse: (Guitar 2)
C#|------------------------------------------------------------------|
G#|------------------------------------------------------------------|
E |--12~~~~~~~~~~~~~14~~~~~~~~~~~~~~~16~~~~~~~~~~~~~~~17~~~~~~~~~~~~~|
B |---x--------------x----------------x----------------x-------------| 
F#|--10~~~~~~~~~~~~~12~~~~~~~~~~~~~~~14~~~~~~~~~~~~~~~15~~~~~~~~~~~~~|
C#|------------------------------------------------------------------|



Chorus: (Guitar 1)
  At times like these
C#|--------------------------------------------------------|
G#|--------------------------------------------------------|
E |--------------------------------------------------------|
B |--------------------------------------------------------| 
F#|--5~~~~~~~~~~~~~~~~~~~~~~~~~~~~~~~222000333-------------|
C#|--3~~~~~~~~~~~~~~~~~~~~~~~~~~~~~~~---------0002222------|

It’s Obvious
C#|--------------------------------------------------------|
G#|--------------------------------------------------------|
E |--------------------------------------------------------|
B |--------------------------------------------------------| 
F#|----------------------------------222000333-------------|
C#|--33333333333333333333333333333333---------0002222------|



Intro: (Guitar 1)
C#|-----------------------------|
G#|-----------------------------|
E |------------5~~~5~5~~~5~~~~~~|
B |--5~~~5~~~~~5~~~5~5~~~5~~~~~~| x1
F#|--2~~~2~~~0-3~~~3~3~~~3~~~~~~|
C#|--0~~~0~~~0-3~~~3~3~~~3~~~~~~|

Intro: (Guitar 1 & 2)
C#|-----------------------------|
G#|-----------------------------|
E |------------5~~~5~5~~~5~~~~~~|
B |--5~~~5~~~~~5~~~5~5~~~5~~~~~~| x3
F#|--2~~~2~~~0-3~~~3~3~~~3~~~~~~|
C#|--0~~~0~~~0-3~~~3~3~~~3~~~~~~|



Verse: (Guitar 1)
C#|------------------------------------------------------------------|
G#|------------------------------------------------------------------|
E |--5~~~~~~~~~~~~~~~~~~~~~~~~---------------------------------------|
B |--5~~~~~~~~~~~~~~~~~~~~~~~~---------------------------------------| 
F#|--3~~~~~~~~~~~~~~~~~~~~~~~~---------------------------------------|
C#|--3~~~~~~~~~~~~~~~~~~~~~~~~---------------------------------------|

Verse: (Guitar 2)
C#|------------------------------------------------------------------|
G#|------------------------------------------------------------------|
E |--12~~~~~~~~~~~~~14~~~~~~~~~~~~~~~16~~~~~~~~~~~~~~~17~~~~~~~~~~~~~|
B |---x--------------x----------------x----------------x-------------| 
F#|--10~~~~~~~~~~~~~12~~~~~~~~~~~~~~~14~~~~~~~~~~~~~~~15~~~~~~~~~~~~~|
C#|------------------------------------------------------------------|

Verse: (Guitar 3)
C#|------------------------------------------------------------------|
G#|------------------------------------------------------------------|
E |--12~~~~~~~~~~~~~~~~14~~~~~~~~~~~~16~~~~~~~~~~~~~~~~~~17~~~~~~~~~~|
B |---x---------------x---------------x-----------------x------------| 
F#|--10~~~~~~~~~~~~~12~~~~~~~~~~~~~~~14~~~~~~~~~~~~~~~15~~~~~~~~~~~~~|
C#|------------------------------------------------------------------|



Chorus: (Guitar 1)
  At times like these
C#|--------------------------------------------------------|
G#|--------------------------------------------------------|
E |--------------------------------------------------------|
B |--------------------------------------------------------| 
F#|--5~~~~~~~~~~~~~~~~~~~~~~~~~~~~~~~222000333-------------|
C#|--3~~~~~~~~~~~~~~~~~~~~~~~~~~~~~~~---------0002222------|

It’s Obvious
C#|--------------------------------------------------------|
G#|--------------------------------------------------------|
E |--------------------------------------------------------|
B |--------------------------------------------------------| 
F#|----------------------------------222000333-------------|
C#|--33333333333333333333333333333333---------0002222------|

  At times like these
C#|--------------------------------------------------------|
G#|--------------------------------------------------------|
E |--------------------------------------------------------|
B |--------------------------------------------------------| 
F#|----------------------------------222000333-------------|
C#|--33333333333333333333333333333333---------0002222------|

It’s Obvious
C#|--------------------------------------------------------|
G#|--------------------------------------------------------|
E |--------------------------------------------------------|
B |--------------------------------------------------------| 
F#|----------------------------------222000333-------------|
C#|--33333333333333333333333333333333---------0002222------|

C#|----------------------------|
G#|----------------------------|
E |----------------------------|
B |--5~~~~~~~~~~~~~~~~~~~~~~~~~| 
F#|--2~~~~~~~~~~~~~~~~~~~~~~~~~|
C#|----------------------------|



Solo: (Guitar 1)
C#|---------------------|
G#|---------------------|
E |--777------8887888---|
B |--5555559996665666---| x2
F#|-----333777----------|
C#|---------------------|

Solo: (Guitar 1 & 2)
C#|---------------------|
G#|---------------------|
E |---------------------|
B |--555555---6665666---| x4
F#|--5553332226665666---|
C#|--3333330004443444---|



Outro: (Guitar 1)
C#|------------------------------------------------------------------|
G#|------------------------------------------------------------------|
E |---------------------------------------------------------55555555-|
B |-5555555555555555444444444444444455555555555555554444444455555555-|x4
F#|-5555555555555555555555555555555555555555555555555555555533333333-|
C#|-33333333333333332222222222222222333333333333333322222222---------|

Outro: (Guitar 2) Those are 12’s and 10’s.
C#|------------------------------------------------------------------|
G#|------------------------------------------------------------------|
E |-1212121212121212121212121212121212121212121212121212121299999999-|
B |-xxxxxxxxxxxxxxxxxxxxxxxxxxxxxxxxxxxxxxxxxxxxxxxxxxxxxxxxxxxxxxxx-|x4
F#|-1010101010101010999999999999999910101010101010109999999977777777-|
C#|------------------------------------------------------------------|



End On: (Guitar 1)
C#|-----------------------|
G#|-----------------------|
E |-----------------------|
B |--5~~~~~~~~~~~~~~~~~~~~|
F#|--2~~~~~~~~~~~~~~~~~~~~|
C#|--0~~~~~~~~~~~~~~~~~~~~|

End On: (Guitar 1)
C#|-----------------------|
G#|-----------------------|
E |--9~~~~~~~~~~~~~~~~~~~~|
B |--x--------------------|
F#|--7~~~~~~~~~~~~~~~~~~~~|
C#|-----------------------|
            
Hard to play? Try these video lessons and learn fast. | Correct




comments powered by Disqus
↑ Back to top | Tablatures and chords are parodies/interpretations of the original songs. You may use it for private study, scholarship, research or language learning purposes only