» » »

*Blink 182*, Its Obvious Tabs (ver.3)

Artists:  A B C D E F G H I J K L M N O P Q R S T U V W X Y Z # 

Its Obvious Tabs (ver.3)

*Blink 182* Tabs
 Rating:
4/5 (4 votes)
Its Obvious lessons Tabs too difficult? Try these video lessons and learn fast
                x=Mute                  
H=Hold

Intro
1---------------------------------------------------
2---------------------------------------------------
3---------------------------------------------------
4---4-4-4---------------4-4-4-----------------------
5---6-6-6-x-x-7-7-7-x-x-6-6-6-x-x-7-7-7-------------
6---------x-x-5-5-5-x-x-------x-x-5-5-5-------------  X4

Verse
1----------------------------------------------
2----------------------------------------------
3----------------------------------------------
4---4H------4H---------------------------------
5---6H--7H--6H--7H-----------------------------
6-------5H------5H-----------------------------

Chorus
1----------------------------------------------
2----------------------------------------------
3----------------------------------------------
4----------------------------------------------
5---2H-------------2H--------------------------
6---0H--4-2-4-5-4--0H--4-2-4-5-----------------

Solo
1----------------------------------------------
2-------6-6-----------6-6----------------------
3-------6-6-----------6-6----------------------
4---6---6-6-------6---6-6----------------------
5---4---4-4--7-7--4---4-4--7-7-----------------
6------------5-5-----------5-5-----------------

Loud Pard
1----------------------------------------------
2----------------------------------------------
3---2-2-2-2-2-2-2-2----------------------------
4---2-2-2-2-2-2-2-2----------------------------
5---2-2-2-2-2-2-2-2----------------------------
6---0-0-0-0-0-0-0-0---------------------------- X4

End
1----------------------------------------------
2----------------------------------------------
3----------------------------------------------
4---6-----------6------------------------------
5---4-X16-7-----4-X16--7-----------------------
6---------5-X16--------5-X16------------------- X2

Intro 
Verse
Chorus
Verse
Chorus
Chorus
Loud Part
End
Verse
            
Submit corrections

comments powered by Disqus
↑ Back to top | *Blink 182* Tabs for Its Obvious. Lyrics for acoustic guitar and electric guitar. Tablatures and chords are parodies/interpretations of the original songs. You may use it for private study, scholarship, research or language learning purposes only