» » »

*Blink 182*, Its Obvious Tabs (ver.2)

Artists:  A B C D E F G H I J K L M N O P Q R S T U V W X Y Z # 

Its Obvious Tabs (ver.2)

*Blink 182* Tabs
 Rating:
4/5 (4 votes)
Its Obvious lessons Tabs too difficult? Try these video lessons and learn fast
1
                Title - Obvious
Artist - Blink 182
Album - Blink 182

Tuning - B, F#, B, E, G#, C#

intro/pre verse
|--------------------------------------------------------|
|--------------------------------------------------------|
|----------5—5–5---------------------------------|
|–2-2—2----5—5–5---------------------------------|
|–2-2—2----3—3–3---------------------------------|
|–2-2—2----------------------------------------------|

verse part 1
|--------------------------------------------------------|
|--------------------------------------------------------|
|------------5~-----------------5---------------|
|----2~----2—5~---------2~----2—5---------------|
|----2~----2—3~---------2~----2—3---------------|
|----2~----2------------2~----2--------------------|

verse part 2
|--------------------------------------------------------|
|--------------------------------------------------------|
|--------------------------------------------------------|
|--------------------------------------------------------|
|---------------222000333---------------------|
|–5555555555555----------2224444----------|

|--------------------------------------------------------|
|--------------------------------------------------------|
|--------------------------------------------------------|
|–5~---------------------------------------------------|
|–4~---------------------------------------------------|
|--------------------------------------------------------|

fast part
|--------------------------------------------------------|
|--------------------------------------------------------|
|—555–222–222–666–555–666------------------|
|—555–222–222–666–555–666------------------|
|—333–222–000–444–333–444------------------|
|--------------------------------------------------------|

outro
|--------------------------------------------------------|
|--------------------------------------------------------|
|--------------------------------------------------------|
|–555555555-----------------------------------------|
|–555555555-----555555555----------------------|
|–555555555-----444444444----------------------|

|--------------------------------------------------------|
|--------------------------------------------------------|
|--------------------------------------------------------|
|—55555555-----------------------------------------|
|—55555555------555555555-----22222222----|
|—55555555------444444444-----22222222----|

end on
|----------|
|----------|
|----------|
|--2~------|
|--2~------|
|--2~------|

im sure this is right,this is how he plays it on aol sessions
            
Submit corrections

comments powered by Disqus
↑ Back to top | *Blink 182* Tabs for Its Obvious. Lyrics for acoustic guitar and electric guitar. 1 Tablatures and chords are parodies/interpretations of the original songs. You may use it for private study, scholarship, research or language learning purposes only