>
 >
Obvious

Obvious Guitar Tabs

*Blink 182* - Obvious chords, tabs, tablatures, lyrics

Guitar lessons | Add/correct | Request | Top 50 tabs Artists:  A B C D E F G H I J K L M N O P Q R S T U V W X Y Z 0-9

Obvious Guitar Tabs – *Blink 182*

CD, Sheet music, Poster

Do you like Obvious? Share with your friends now
TabsTabs v2Tabs v3
Title - Obvious
Artist - Blink 182
Album - Blink 182

Tuning - B, F#, B, E, G#, C#

intro/pre verse
|--------------------------------------------------------|
|--------------------------------------------------------|
|----------5𧇻---------------------------------|
|2-22----5𧇻---------------------------------|
|2-22----3𦠡---------------------------------|
|2-22----------------------------------------------|

verse part 1
|--------------------------------------------------------|
|--------------------------------------------------------|
|------------5~-----------------5---------------|
|----2~----25~---------2~----25---------------|
|----2~----23~---------2~----23---------------|
|----2~----2------------2~----2--------------------|

verse part 2
|--------------------------------------------------------|
|--------------------------------------------------------|
|--------------------------------------------------------|
|--------------------------------------------------------|
|---------------222000333---------------------|
|5555555555555----------2224444----------|

|--------------------------------------------------------|
|--------------------------------------------------------|
|--------------------------------------------------------|
|5~---------------------------------------------------|
|4~---------------------------------------------------|
|--------------------------------------------------------|

fast part
|--------------------------------------------------------|
|--------------------------------------------------------|
|555222222666555666------------------|
|555222222666555666------------------|
|333222000444333444------------------|
|--------------------------------------------------------|

outro
|--------------------------------------------------------|
|--------------------------------------------------------|
|--------------------------------------------------------|
|555555555-----------------------------------------|
|555555555-----555555555----------------------|
|555555555-----444444444----------------------|

|--------------------------------------------------------|
|--------------------------------------------------------|
|--------------------------------------------------------|
|55555555-----------------------------------------|
|55555555------555555555-----22222222----|
|55555555------444444444-----22222222----|

end on
|----------|
|----------|
|----------|
|--2~------|
|--2~------|
|--2~------|

im sure this is right,this is how he plays it on aol sessions





Comments


Popular *Blink 182* tabs & chords
Dancing With Myself Bass Tabs
Dysentary Gary Bass Tabs
Even If She Falls 3 Chords
A Letter To Elise 1 Tabs
All The Small Things Live 7 Tabs
Anthem Part Two 2 Tabs
Cacophony 2 Tabs
Cacophony Intro 1 Tabs
Down 1 Tabs
Dysentary Gary 1 Tabs


Song lyrics



↑ Back to top | Tablatures and chords are parodies/interpretations of the original songs. You may use it for private study, scholarship, research or language learning purposes only
© 2014 AZChords.com Contact us | Privacy policy | DMCA | Add/correct tabs | Request tabs | Top 50 tabs