>
 >
Marlboro Man

Marlboro Man Bass Tabs

*Blink 182* - Marlboro Man chords, tabs, tablatures, lyrics

Guitar lessons | Add/correct | Request | Top 50 tabs Artists:  A B C D E F G H I J K L M N O P Q R S T U V W X Y Z 0-9

Marlboro Man Bass Tabs – *Blink 182*

CD, Sheet music, Poster

Do you like Marlboro Man? Share with your friends now
Bass TabsBass Tabs v2
INTRO 1
G ------------------------------------
D ------------------------------------
A 12~0--12~0--12~0-12-0-12-0-12-0-12--
E ------------------------------------

 INTRO 2 x2
G -----------------------------------------5-7-5-------------------------- 
D ------5-7-5-------------5-7-57-57--0-5-7-------7-57--------5-7-5-------- 
A 0-5-7-------7-57--0-5-7-------------------------------0-5-7-------7-57-- 
E ------------------------------------------------------------------------ 

G -----------------------------------
D -------------------------5-7-57-57-
A ------5-7-5--------0-5-7-----------
E 0-5-7-------7-57-------------------


 PRE-VERSE 1
G ------------------------------------|
D ---------------------------77777777-| x2
A 00000000-55555555-77777777----------|
E ------------------------------------|

 VERSE
G ------------------------------------|
D ---------------------------77---4-6-| x4
A 00000000-55555555-77777777----7-----|
E ------------------------------------|


 CHORUS
G ------------------------|
D ------------------------| x4 
A 5554-000000-7774-000000-|
E ------------------------|

G --------------------------------------------------------------------|
D --------------------------------------------------------------------| x2
A 7777777777777777-000000000h2000000-----------------5555555555555555-|
E ----------------------------------2222222222222222------------------|


 PRE-VERSE 2
G -------------------------------------|
D ---------------------------777777h97-| x2
A 00000000-55555555-77777777-----------|
E -------------------------------------|

 VERSE 2
G ----------------|
D ----------------| x4
A 0000-5555-77777-|
E ----------------|

 FILL
G ------------------------------------|
D ---------------------------77---4-6-| x2
A 00000000-55555555-77777777----7-----|
E ------------------------------------|

 CHORUS 2
G --------------------------------------------------------------------|
D -----------------7777777777797676-----------------------------------|
A 7777777777777777-----------------------------------5555555555555555-| x3
E ----------------------------------2222222222222222------------------|

G --------------------------------------------------------------------|
D -----------------7777777777777777-----------------------------------|
A 7777777777777777-----------------------------------5555555555555555-|
E ----------------------------------2222222222222222------------------|


 GUITAR SOLO
G --------------------------------------------------------------------|
D --------------------------------------------------------------------|
A 7777777777777777-0000000000000000------------------5555555555555555-|
E ----------------------------------2222222222222222------------------|

G --------------------------------------------------------------------|
D ----------------------------------4444444444444444------------------|
A 7777777777777777-0000000000000000------------------5555555555555555-|
E --------------------------------------------------------------------|

 OUTRO
G ------------------------------------------------------------------------|
D -----------------4444-6667-7777777h9-77777h9-7777777-999999-10-9-7-99-7-|
A 7777777777777777--------------------------------------------------------|
E ------------------------------------------------------------------------|





Comments


Popular *Blink 182* tabs & chords
Apple Shampoo 4 Bass Tabs
All Of This Chords
Anthem Part Two Tabs
Carousel 7 Tabs
Emo 1 Tabs
Family Reunion Tabs
I Miss You 1 Tabs
Stockholm Syndrome 2 Tabs
Track 38 Tabs
Voyeur 2 Tabs


Song lyrics



↑ Back to top | Tablatures and chords are parodies/interpretations of the original songs. You may use it for private study, scholarship, research or language learning purposes only
© 2014 AZChords.com Contact us | Privacy policy | DMCA | Add/correct tabs | Request tabs | Top 50 tabs