>
 >
Marlboro Man 1

Marlboro Man 1 Bass Tabs

*Blink 182* - Marlboro Man 1 chords, tabs, tablatures, lyrics

Guitar lessons | Add/correct | Request | Top 50 tabs Artists:  A B C D E F G H I J K L M N O P Q R S T U V W X Y Z 0-9

Marlboro Man 1 Bass Tabs – *Blink 182*

CD, Sheet music, Poster

Do you like Marlboro Man 1? Share with your friends now
Bass TabsBass Tabs v2
G ----------------------------------------- 
D ----------------------------------------- 
A 1212-0--1212-0--1212-0-12-0-12-0-12-0-12-    x 2
E ----------------------------------------- 

G -----------------------------------------5-7-5-------------------------- 
D ------5-7-5-------------5-7-57-57--0-5-7-------7-5-7--------5-7-5------- 
A 0-5-7-------7-57--0-5-7-------------------------------0-5-7-------7-57-- 
E------------------------------------------------------------------------- 

G ---------------------------------------- 
D -------------------------5-7-5---------7
A ------5-7-5--------0-5-7-------7-5-7-0-- 
E 0-5-7-------7-5-7----------------------- 

 VERSE
G ------------------------------------| 
D ---------------------------77777777-|    x2
A 00000000-55555555-77777777----------| 
E ------------------------------------| 

G ------------------------------------| 
D ---------------------------77---4-6-|    x2
A 00000000-55555555-77777777----7-----| 
E ------------------------------------| 

CHORUS 
G ------------------------| 
D ------------------------|   x4 
A 5554-000000-7774-000000-| 
E ------------------------| 

G --------------------------------------------------------------------| 
D --------------------------------------------------------------------|  x2
A 7777777777777777-0000000000000000------------------5555555555555555-| 
E ----------------------------------2222222222222222------------------| 


2ND VERSE 
G -------------------------------------| 
D ---------------------------777777h97-| x2
A 00000000-55555555-77777777-----------| 
E -------------------------------------| 

G ----------------| 
D ----------------| x4
A 0000-5555-77777-| 
E ----------------| 


G ------------------------------------| 
D ---------------------------77777777-|   x2
A 00000000-55555555-77777777----------| 
E ------------------------------------| 

Rift
G ----------------------------------------------------------------------| 
D ----------------7777777777777777976764444444444444444-----------------|  
A 7777777777777777--------------------------------------5555555555555555| 
E ----------------------------------------------------------------------| 

G -------------------------------------------------------------------------| 
D -----------------7777777777777777976676----------------------------------| 
A 7777777777777777-----------------------------------------5555555555555555| 
E ----------------------------------------2222222222222222-----------------| 

G --------------------------------------------------------------------| 
D -----------------7777777777777777-4444444444444444------------------| 
A 7777777777777777-----------------------------------5555555555555555-| 
E --------------------------------------------------------------------| 


guitar solo with bass in background
G ------------------------------------------------------------------------------| 
D --------------------------------------------4444444444444444------------------|  
A 00000000-7777777777777777777777777777777777------------------5555555555555555-| 
E ------------------------------------------------------------------------------| 
                                    x 2

OUTRO
G ------------------------------------------------------------------------|
D -----------------4444-6667-7777777-977777-9-7777777-9-99999-10-9-7-99-7-| 
A 7777777777777777--------------------------------------------------------|
E ------------------------------------------------------------------------|

sweet song





Comments


Popular *Blink 182* tabs & chords
All The Small Things 4 Bass Tabs
Anthem Part 2 2 Bass Tabs
Anthem Pt.2 Bass Tabs
Strings 1 Bass Tabs
Transvestite 1 Bass Tabs
*** A Dog 1 Tabs
Boxing Day Tabs
Down Live Tabs
Dysentary Gary Tabs
Stay Together For The Kids Complete Tabs


Song lyrics



↑ Back to top | Tablatures and chords are parodies/interpretations of the original songs. You may use it for private study, scholarship, research or language learning purposes only
© 2014 AZChords.com Contact us | Privacy policy | DMCA | Add/correct tabs | Request tabs | Top 50 tabs