» » »

I Miss You Tabs (ver.3)

Artists:  A B C D E F G H I J K L M N O P Q R S T U V W X Y Z # 

I Miss You Tabs (ver.3)

*Blink 182*
Rating:
0/5 (0 votes)

Hard to play? Try these video lessons and learn fast.
                Guitar Tab 


Intro:
e|----------------|
B|----------------|
G|4-4-4/8-8-8-----| (x12)
D|4-4-4/8-8-8-----|
A|2-2-2/6-6-6-----|
E|----------------|


Verse1: (Hello There...)
e|----------------|
B|----------------|
G|4-4-4/8-8-8-----| (x12)
D|4-4-4/8-8-8-----|
A|2-2-2/6-6-6-----|
E|----------------|


Bridge(x2):
e|-----------------------------------------------------------------|
B|-----------------------------------------------------------------|
G|4-4-4-4-6-6-6-6-8-8-8-8-i-i-i-i-9-9-9-9-9-9-9-9-9-9-9-9-9-9-9-9--|
D|4-4-4-4-6-6-6-6-8-8-8-8-i-i-i-i-9-9-9-9-9-9-9-9-9-9-9-9-9-9-9-9--|
A|2-2-2-2-4-4-4-4-6-6-6-6-9-9-9-9-7-7-7-7-7-7-7-7-7-7-7-7-7-7-7-7--|
E|-----------------------------------------------------------------|


Verse2: (Where are you?...)
e|----------------|
B|----------------|
G|4-4-4/8-8-8-----| (x16)
D|4-4-4/8-8-8-----|
A|2-2-2/6-6-6-----|
E|----------------|


Chorus(x2): (Don’t waste your time...)
e|-----------------------------------------------------------------|
B|-----------------------------------------------------------------|
G|4-4-4-4-6-6-6-6-8-8-8-8-i-i-i-i-9-9-9-9-9-9-9-9-9-9-9-9-9-9-9-9--|
D|4-4-4-4-6-6-6-6-8-8-8-8-i-i-i-i-9-9-9-9-9-9-9-9-9-9-9-9-9-9-9-9--|
A|2-2-2-2-4-4-4-4-6-6-6-6-9-9-9-9-7-7-7-7-7-7-7-7-7-7-7-7-7-7-7-7--|
E|-----------------------------------------------------------------|


Interlude:
e|----------------|
B|----------------|
G|4-4-4/8-8-8-----| (x8)
D|4-4-4/8-8-8-----|
A|2-2-2/6-6-6-----|
E|----------------|

(The intro, verse and interlude are the same thing)


This part is played by other instrument through the interlude
but sounds cool played by a guitar:

e|-16-18-19-18-16-18-19-18-|
B|-------------------------|
G|-------------------------| 
D|-------------------------|
A|-------------------------|
E|-------------------------|

Chorus(x4): (Don’t waste your time...)
e|-----------------------------------------------------------------|
B|-----------------------------------------------------------------|
G|4-4-4-4-6-6-6-6-8-8-8-8-i-i-i-i-9-9-9-9-9-9-9-9-9-9-9-9-9-9-9-9--|
D|4-4-4-4-6-6-6-6-8-8-8-8-i-i-i-i-9-9-9-9-9-9-9-9-9-9-9-9-9-9-9-9--|
A|2-2-2-2-4-4-4-4-6-6-6-6-9-9-9-9-7-7-7-7-7-7-7-7-7-7-7-7-7-7-7-7--|
E|-----------------------------------------------------------------|

Outro(x4):
e|-----------------------------------------------------------------|
B|-----------------------------------------------------------------|
G|4-4-4-4-6-6-6-6-8-8-8-8-i-i-i-i-9-9-9-9-9-9-9-9-9-9-9-9-9-9-9-9--|
D|4-4-4-4-6-6-6-6-8-8-8-8-i-i-i-i-9-9-9-9-9-9-9-9-9-9-9-9-9-9-9-9--|
A|2-2-2-2-4-4-4-4-6-6-6-6-9-9-9-9-7-7-7-7-7-7-7-7-7-7-7-7-7-7-7-7--|
E|-----------------------------------------------------------------|

The bridge, chorus, and outro are the same thing, it does not show strumming patterns and the “i” means 11 (i=11).


This is my first tab, if there are any mistakes please post in the corrections. This is a very cool song, you have to hear it first so you can catch the rhythm.
            
Hard to play? Try these video lessons and learn fast. | Correct




comments powered by Disqus
↑ Back to top | Tablatures and chords are parodies/interpretations of the original songs. You may use it for private study, scholarship, research or language learning purposes only