» » »

*Blink 182*, I Miss You Tabs (ver.2)

Artists:  A B C D E F G H I J K L M N O P Q R S T U V W X Y Z # 

I Miss You Tabs (ver.2)

*Blink 182* Tabs
 Rating:
4/5 (4 votes)
I Miss You lessons Tabs too difficult? Try these video lessons and learn fast
1
                03 I Miss You

E A D G B E 

All acoustic. this is the upcoming single from the latest 
blink lp, blink 182.

Intro/Verse/Bridge
----------------
----------------
-----4-48-88-8--
-----4-48-88-8--
-----2-26-66-6--
--------7-77-7--

Chorus/Pre-Verse/Outro
you may not agree with this chorus, but listen 
to the version on blink182.com, before they recorded
the other instruments over it.
heres the eaxct link:


its the video called "new songs and more!" and 
youll see first mark on a trampoline
talking, then tom recording the vocals for down, 
then near the end youll hear the guitar for i miss 
you before the orchestra was recorded over it, and 
youll hear a big difference. remember to click on the SECOND from the top

-------------------------------
-------------------------------
4-4-4-44-4-4-4-8-8-8-86-66-6-6-
4-4-4-44-4-4-4-8-8-8-86-66-6-6-
2-2-2-24-4-4-4-6-6-6-64-44-4-4-
-------------------------------

--------------------------------
--------------------------------
--------------------------------
6-6-6-68-88-8-8-9-9-9-99-99-9-9-
6-6-6-68-88-8-8-9-9-9-99-99-9-9-
4-4-4-46-66-6-6-7-7-7-77-77-7-7-

--------------------------------
--------------------------------
8-8-8-84-44-4-4-8-8-8-86-66-6-6-
8-8-8-84-44-4-4-8-8-8-86-66-6-6-
6-6-6-64-44-4-4-6-6-6-64-44-4-4-
--------------------------------

--------------------------------
--------------------------------
--------------------------------
6-6-6-68-88-8-8-9-9-9-99-99-9-9-
6-6-6-68-88-8-8-9-9-9-99-99-9-9-
4-4-4-46-66-6-6-7-7-7-77-77-7-7-
____________________________________________
            
Submit corrections

comments powered by Disqus
↑ Back to top | *Blink 182* Tabs for I Miss You. Lyrics for acoustic guitar and electric guitar. 1 Tablatures and chords are parodies/interpretations of the original songs. You may use it for private study, scholarship, research or language learning purposes only