>
 >
Give Me One Good Reason 2

Give Me One Good Reason 2 Guitar Tabs

*Blink 182* - Give Me One Good Reason 2 chords, tabs, tablatures, lyrics

Guitar lessons | Add/correct | Request | Top 50 tabs Artists:  A B C D E F G H I J K L M N O P Q R S T U V W X Y Z 0-9

Give Me One Good Reason 2 Guitar Tabs – *Blink 182*

CD, Sheet music, Poster

Do you like Give Me One Good Reason 2? Share with your friends now
TabsTabs v2Tabs v3
Intro: standard tuning 
e----------------------------------------------------------------------- 
b----------------------------------------------------------------------- 
g-----1-----1--------1-----1-------------1-----1--------1-----1--------- 
d---2---2-----2--------2-----2---2-----2---2-----2--------2-----2---2--- 
a-2-------2-----2--0-----0-----0-----2-------2-----2--0-----0-----0----- 
E----------------------------------------------------------------------- 

e----------------------------------------------------------------------- 
b----------------------------------------------------------------------- 
g---1------1----------1-----1-----------1-----1--------1-----1---------- 
d-----2------2----------2-----2---2-------2-----2--------2-----2---2---- 
a-4-----4------4----0-----0-----0-----4-----4-----4---2----2-----2------ 
E---------------------------------------------------------------(5-5-5-5)* 

 *harmonics over the last 2 of the intro notes (2nd guitar)                    
 
 

Verse: 

d------------4-4-4-4-4----6-6-6-6-6-------------6-6-6-6-6--4-4-4-4-4 
a-2-2-2-2-2--2-2-2-2-2-x2-4-4-4-4-4--7-7-7-7-7--4-4-4-4-4--2-2-2-2-2 
E-0-0-0-0-0--------------------------5-5-5-5-5--—-------------------

bridge: 
g-----------1------------------ 
d-------------------1h2-2------ 
a-2-2-2-2-2---2-2-2------------ 
E-0-0-0-0-0(pm^-^-^)----------- 
             
Chorus: 
d-------------------2222222222222222- 
a-22222222-66666666-0000000000000000- 
E-00000000-44444444------------------

d-------------------44444444-22222222- 
a-22222222-66666666-22222222-00000000-
E-00000000-44444444-------------------

Solo: (played over chorus riff) 
g---------------1-1-1--2-2-2--1-1---------------------------------------- 
d-2-2-2--4-4-4---------------------2-2--2-2-2-------2-2-2-------2-2------ 
a---------------------------------------------2-2-2-------2-2-2-----2-2—-
E------------------------------------------------------------------------ 

g---------------1-1-1--2-2-2--1-1---------------------------------------- 
d-2-2-2--4-4-4---------------------2-2--4-4-4-4-4--6----4-4-4-4-4--6----- 
a----------------------------------------------------7---------------7--- 
E------------------------------------------------------------------------ 

g---------------1-1-1--2-2-2--1-1---------------------------------------- 
d-2-2-2--4-4-4---------------------2-2--2-2-2-------2-2-2-------2-2------ 
a---------------------------------------------2-2-2-------4-4-4-----4-4—
E------------------------------------------------------------------------ 

g---------------1-1-1--2-2-2--1-1----------------------------------------------- 
d-2-2-2--4-4-4---------------------2-2--4-4-4-4-4--6----4-4-4-4-4--6------------ 
a----------------------------------------------------7---------------7-6h7-ring- 
E------------------------------------------------------------------------------- 

Song order: 
intro  (once) 
verse  (once) 
bridge (twice) 
verse  (once) 
bridge (twice) 
chorus (once) 
intro  (once)  
verse  (once) 
bridge (four times) 
chorus (once) 
solo 
chorus (once)
end on a-2-
       E-0-





Comments


Popular *Blink 182* tabs & chords
Rock Show Chords
Another Girl Another Planet Drum Tabs
A Letter To Elise Tabs
A New Hope (Intro Ver 2) Tabs
All The Small Things 4 Tabs
Dancing With Myself 4 Tabs
Dont 1 Tabs
Even If She Falls Tabs
Mothers Day Tabs
Touchdown Boy 1 Tabs


Song lyrics



↑ Back to top | Tablatures and chords are parodies/interpretations of the original songs. You may use it for private study, scholarship, research or language learning purposes only
© 2014 AZChords.com Contact us | Privacy policy | DMCA | Add/correct tabs | Request tabs | Top 50 tabs