» » »

*Blink 182*, Give Me One Good Reason Tabs (ver.1)

Artists:  A B C D E F G H I J K L M N O P Q R S T U V W X Y Z # 

Give Me One Good Reason Tabs (ver.1)

*Blink 182* Tabs
Rating:
0/5 (0 votes)
Give Me One Good Reason lessons Tabs too difficult? Try these video lessons and learn fast
                0:00=START
Intro
--------------------------------
--------------------------------
-----1-----1--------------------Clean
---2-----2---2---4-2---4-2---2--
-2-----2-------2-----2-----2----
--------------------------------

--------------------------------
--------------------------------
-----1-----1--------------------Clean
---2-----2---2---4-2---4-2---2--
-2-----2-------2-----2-----2----
--------------------------------

-----------------------------------
-----------------------------------
----1-----1------------------------Clean
--2-----2---2-----2-4-2-----2-4-2--
4-----4-------0-0-------0-0--------
-----------------------------------

------------------------------------
------------------------------------
----1-----1-------------------------Clean (Last 4 notes distorted[2222])
--2-----2---2-----2-4-2-----2-2-2-2-
4-----4-------0-0-------0-0---------
------------------------------------

0:13
Verse
------------------------------------------------------
------------------------------------------------------
------44444-------44444-66666-22222-66666-44444------- Distorted
22222-44444-22222-44444-66666-22222-66666-44444-------
22222-22222-22222-22222-44444-00000-44444-22222-------
00000-------00000-------------------------------------

0:25
Link
---------------------
---------------------
-----1--4444---------Distorted
222-----4444---1h2-2-
222-----2222---------
000------------------

---------------------
---------------------
-----1--4444---------Distorted
222-----4444---1h2-2-
222-----2222---------
000------------------

0:31
Verse
------------------------------------------------------
------------------------------------------------------
------44444-------44444-66666-22222-66666-44444------- Distorted
22222-44444-22222-44444-66666-22222-66666-44444-------
22222-22222-22222-22222-44444-00000-44444-22222-------
00000-------00000-------------------------------------

0:43
Link
---------------------
---------------------
-----1--4444---------Distorted
222-----4444---1h2-2-
222-----2222---------
000------------------

---------------------
---------------------
-----1--4444---------Distorted
222-----4444---1h2-2-
222-----2222---------
000------------------

0:49
Chorus
----------------44444444444444444-------------------44444444---22222222--Distorted
222222222222222-44444444444444444-22222222222222222-44444444---22222222--
222222222222222-22222222222222222-22222222222222222-22222222---00000000--
000000000000000-------------------00000000000000000----------------------

----------------44444444444444444-------------------44444444---22222222-- Distorted
222222222222222-44444444444444444-22222222222222222-44444444---22222222--
222222222222222-22222222222222222-22222222222222222-22222222---00000000--
000000000000000-------------------00000000000000000----------------------

1:14
Intro
--------------------------------
--------------------------------
-----1-----1--------------------Clean
---2-----2---2---4-2---4-2---2--
-2-----2-------2-----2-----2----
--------------------------------

--------------------------------
--------------------------------
-----1-----1--------------------Clean
---2-----2---2---4-2---4-2---2--
-2-----2-------2-----2-----2----
--------------------------------

-----------------------------------
-----------------------------------
----1-----1------------------------Clean
--2-----2---2-----2-4-2-----2-4-2--
4-----4-------0-0-------0-0--------
-----------------------------------

------------------------------------
------------------------------------
----1-----1-------------------------Clean (Last 4 notes distorted[2222])
--2-----2---2-----2-4-2-----2-2-2-2-
4-----4-------0-0-------0-0---------
------------------------------------

1:26
Verse
------------------------------------------------------
------------------------------------------------------
------44444-------44444-66666-22222-66666-44444------- Distorted
22222-44444-22222-44444-66666-22222-66666-44444-------
22222-22222-22222-22222-44444-00000-44444-22222-------
00000-------00000-------------------------------------

1:38
Link
---------------------
---------------------
-----1--4444---------Distorted
222-----4444---1h2-2-
222-----2222---------
000------------------

---------------------
---------------------
-----1--4444---------Distorted
222-----4444---1h2-2-
222-----2222---------
000------------------

---------------------
---------------------
-----1--4444---------Distorted
222-----4444---1h2-2-
222-----2222---------
000------------------

---------------------
---------------------
-----1--4444---------Distorted
222-----4444---1h2-2-
222-----2222---------
000------------------

1:50
Chorus
----------------44444444444444444-------------------44444444---22222222-- Distorted
222222222222222-44444444444444444-22222222222222222-44444444---22222222--
222222222222222-22222222222222222-22222222222222222-22222222---00000000--
000000000000000-------------------00000000000000000----------------------

----------------44444444444444444-------------------44444444---22222222-- Distorted
222222222222222-44444444444444444-22222222222222222-44444444---22222222--
222222222222222-22222222222222222-22222222222222222-22222222---00000000--
000000000000000-------------------00000000000000000----------------------

2:14
Solo
---------------9-9-9-10-10-10-9-9-----------------------------------
9-9-9-11-11-11--------------------9-9--9-9-9---------9-9-9---------- Distorted
---------------------------------------------9-9-9-9-------9-9-9-9--

---------------9-9-9-10-10-10-9-9------------------------------------------------
9-9-9-11-11-11--------------------9-9-11-11-11-11-11-13-9-11-11-11-11-11-13-9--9- Distorted

2:45
Chorus
----------------44444444444444444-------------------44444444---22222222-- Distorted
222222222222222-44444444444444444-22222222222222222-44444444---22222222--
222222222222222-22222222222222222-22222222222222222-22222222---00000000--
000000000000000-------------------00000000000000000----------------------

----------------44444444444444444-------------------44444444---22222222-- Distorted
222222222222222-44444444444444444-22222222222222222-44444444---22222222--
222222222222222-22222222222222222-22222222222222222-22222222---00000000--
000000000000000-------------------00000000000000000----------------------

3:15=END
            

comments powered by Disqus
↑ Back to top | *Blink 182* Tabs for Give Me One Good Reason. Lyrics for acoustic guitar and electric guitar. Tablatures and chords are parodies/interpretations of the original songs. You may use it for private study, scholarship, research or language learning purposes only