» » »

Dysentery Gary Tabs (ver.2)

Artists:  A B C D E F G H I J K L M N O P Q R S T U V W X Y Z # 

Dysentery Gary Tabs (ver.2)

*Blink 182*
Rating:
0/5 (0 votes)

Hard to play? Try these video lessons and learn fast.
                
Standard Tuning

The Intro and Outro are tremelo picking, if you don't know what that is
just upstroke and down stroke really quick on the note. Correct me if Im wrong.

Intro: x4
e|--------------------------------------------------------------
B|--------------------------------------------------------------
G|--------------------------------------------------------------
D|-4-4-4-0-0-0-5-5-5-4-4-4-0-0-0--------4-4-4-------------------
A|---------------------------------------------0-0-0-4-4-4-4-(5)
E|--------------------------------3-3-3-------------------------

Or you could play it like this:

e|--------------------------------------------------------------
B|--------------------------------------------------------------
G|--------------------------------------------------------------
D|-4-4-4-------5-5-5-4-4-4--------------4-4-4-------------------
A|-------5-5-5-------------5-5-5---------------0-0-0-4-4-4-4-(5)
E|--------------------------------3-3-3-------------------------

Verse 1: x2
e|------------------------------------------------------
B|------------------------------------------------------
G|--7x-x-x-x7--7x-x-x-x7--------------------------------
D|--7x-x-x-x7--7x-x-x-x7--5x-x-x-x5--7x-x-x-x7x-x-x-x7--
A|--5x-x-x-x5--5x-x-x-x5--5x-x-x-x5--7x-x-x-x7x-x-x-x7--
E|------------------------3x-x-x-x3--5x-x-x-x5x-x-x-x5--

Or you can play it another way, I got an IM form someone telling me about it.
Here it goes:

e|----------------------------------------------------------------
B|----------------------------------------------------------------
G|--7---------7--7---------7--------------------------------------
D|--7---------7--7---------5--5---------5--7---------7---------7--
A|--5-0-0-0-0-5--5-0-0-0-0-5--5-0-0-0-0-5--7-0-0-0-0-7-0-0-0-0-7--
E|----------------------------3---------3--5---------5---------5--
      ::pm:::      ::pm:::      ::pm:::      ::pm:::   ::pm:::

Interlude: x1
e|-------------------------------------
B|-------------------------------------
G|--7-7-7-7-7-7-7-7--7-7-7-7--6-6-6-6--
D|--7-7-7-7-7-7-7-7--x-x-x-x--7-7-7-7--
A|--5-5-5-5-5-5-5-5--5-5-5-5--5-5-5-5--
E|-------------------------------------

Pre - Chorus: x1
e|---------------------------------------------
B|---------------------------------------------
G|--7-7-7-7-7-7-7-7----------------------------
D|--7-7-7-7-7-7-7-7--5-5-5-5-5-5--7-7-7-7-7-7--
A|--5-5-5-5-5-5-5-5--5-5-5-5-5-5--7-7-7-7-7-7--
E|-------------------3-3-3-3-3-3--5-5-5-5-5-5--

Chorus: x6
e|--15--14---------------
B|---------15------------
G|-------------12-12-12--
D|-----------------------
A|-----------------------
E|-----------------------

Then you play the Intro: x2
e|--------------------------------------------------------------
B|--------------------------------------------------------------
G|--------------------------------------------------------------
D|-4-4-4-0-0-0-5-5-5-4-4-4-0-0-0--------4-4-4-------------------
A|---------------------------------------------0-0-0-4-4-4-4-5--
E|--------------------------------3-3-3-------------------------
 Or the other way, doesn't matter. Both sound pretty accurate.

Verse 1: x2
e|------------------------------------------------------
B|------------------------------------------------------
G|--7x-x-x-x7--7x-x-x-x7--------------------------------
D|--7x-x-x-x7--7x-x-x-x7--5x-x-x-x5--7x-x-x-x7x-x-x-x7--
A|--5x-x-x-x5--5x-x-x-x5--5x-x-x-x5--7x-x-x-x7x-x-x-x7--
E|------------------------3x-x-x-x3--5x-x-x-x5x-x-x-x5--

or the other way:

e|----------------------------------------------------------------
B|----------------------------------------------------------------
G|--7---------7--7---------7--------------------------------------
D|--7---------7--7---------5--5---------5--7---------7---------7--
A|--5-0-0-0-0-5--5-0-0-0-0-5--5-0-0-0-0-5--7-0-0-0-0-7-0-0-0-0-7--
E|----------------------------3---------3--5---------5---------5--
      ::pm:::      ::pm:::      ::pm:::      ::pm:::   ::pm:::


Interlude: x2
e|-------------------------------------
B|-------------------------------------
G|--7-7-7-7-7-7-7-7--7-7-7-7--6-6-6-6--
D|--7-7-7-7-7-7-7-7--x-x-x-x--7-7-7-7--
A|--5-5-5-5-5-5-5-5--5-5-5-5--5-5-5-5--
E|-------------------------------------
 On the second time playing this, Mark sings,
   "Ease away the problems and the pain...."

Pre - Chorus: x1
e|---------------------------------------------
B|---------------------------------------------
G|--7-7-7-7-7-7-7-7----------------------------
D|--7-7-7-7-7-7-7-7--5-5-5-5-5-5--7-7-7-7-7-7--
A|--5-5-5-5-5-5-5-5--5-5-5-5-5-5--7-7-7-7-7-7--
E|-------------------3-3-3-3-3-3--5-5-5-5-5-5--

Chorus: x6
e|--15--14---------------
B|---------15------------
G|-------------12-12-12--
D|-----------------------
A|-----------------------
E|-----------------------

Bridge: x1  (All bends up 1/4 tone)
e|-------------------------------------------------------------
B|-------------------------------------------------------------
G|--------------------------------------------------------(0)--
D|--4-5b--4--------4-5b--4--------4-5b--4---------4-5b--4--0---
A|--5--------7-0---5-------7-0-5--5--------7-0----5--------5---
E|---------------5-----------------------------5---------------

Chorus: x6
e|--15--14---------------
B|---------15------------
G|-------------12-12-12--
D|-----------------------
A|-----------------------
E|-----------------------

Outro: x1
e|--------------------------------------------
B|--------------------------------------------
G|--------------------------------------------
D|-4-4-4-0-0-0-5-5-5-4-4-4-0-0-0--------------
A|-------------------------------0-0-4-4-4-5--
E|--------------------------------------------

Or

e|--------------------------------------------
B|--------------------------------------------
G|--------------------------------------------
D|-4-4-4-------5-5-5-4-4-4--------------------
A|-------5-5-5-------------5-5-5-----4-4-4-5--
E|-------------------------------5-5----------

and thats that.... I'll see ya when I see ya, bye.
            
Hard to play? Try these video lessons and learn fast. | Correct




comments powered by Disqus
↑ Back to top | Tablatures and chords are parodies/interpretations of the original songs. You may use it for private study, scholarship, research or language learning purposes only