» » »

*Blink 182*, Dysentery Gary Tabs (ver.3)

Artists:  A B C D E F G H I J K L M N O P Q R S T U V W X Y Z # 

Dysentery Gary Tabs (ver.3)

*Blink 182* Tabs
 Rating:
4/5 (4 votes)
Dysentery Gary lessons Tabs too difficult? Try these video lessons and learn fast
1
                this is the begginning parts of the song, i'll prolly do the rest later.

e---------------------------------------------------------------------------
b---------------------------------------------------------------------------
g---------------------------------------------------------------------------
d-4-4-4-0-0-0-5-5-5-4-4-4-0-0-0-0-------4-4-4-------------------------------
a---------------------------------------------0-0---------------------------
e---------------------------------3-3-3-------------------------------------

e-------------------------------------------
b-----------------------------------7-------
g-----------------------------------7-------
d---------------------7-------------7-------
a-0-4-4-4-4-4-4-0-----7-------------5-------
e---------------------5---------------------

e--------------------------------------------------------------------------------
b--------------------------------------------------------------------------------
g-7--7-7-7-7-7---7-7-7-7-7-7-7---------------------------------------------------
d-7--7-7-7-7-7---7-7-7-7-7-7-7---5--5-5-5-5-7---7-7-7-7-7-7-7--------------------
a-5--5-5-5-5-5---5-5-5-5-5-5-5---5--5-5-5-5-5---7-7-7-7-7-7-7--------------------
e--------------------------------3--3-3-3-3-5---5-5-5-5-5-5-5--------------5-----


e---------------------------------------------------
b---------------------------------------------------
g--------------------------------------------------
d-7-----------4--------7-----------4---------------
a-x---0-0-0-0-5--------x---0-0-0-0-5---------------
e-5--------------------5---------------------------
pre-chorus
e---------------------------------------------------------------
b-2---2---2---2-------------------------------------------------
g-2---2---2---2---7---7--7--7---7-------------------------------
d-2---2---2---2---7---7--7--7---7----7--7--7----7---7-----------
a-0---0---0---0---5---5--5--5---5----5--5--5----5---5-----------
e---------------------------------------------------------------
this is the chorus-life just sucks. i lost the one. im giving up...........
e-15-----14----------------------------15-----14-----------------------------
b---------------15----------------------------------15-----------------------
g----------------------12---12---12-----------------------12---12---12-------
d----------------------------------------------------------------------------
a----------------------------------------------------------------------------
e----------------------------------------------------------------------------
ok, thats all i know, so tata
            
Submit corrections

comments powered by Disqus
↑ Back to top | *Blink 182* Tabs for Dysentery Gary. Lyrics for acoustic guitar and electric guitar. 1 Tablatures and chords are parodies/interpretations of the original songs. You may use it for private study, scholarship, research or language learning purposes only