» » »

Don't Tell Me It's Over Tabs (ver.3)

Artists:  A B C D E F G H I J K L M N O P Q R S T U V W X Y Z # 

Don't Tell Me It's Over Tabs (ver.3)

*Blink 182*
Rating:
0/5 (0 votes)

Hard to play? Try these video lessons and learn fast.
                blink 182
cancion:hold on
album:take of your pants and jaket, jacket version

it's easy                  *****palm mute

intro
e[-----------------]
B[-----------------]
G[5---------55-----]
D[5---------55-----]x2
A[3---------33-----]
E[-----------------]

pre verse
e[-----------
B[-----------
G[55555555555
D[55555555555 hold.......
A[33333333333
E[-----------

verse
e[---------------------------------------------]
B[---------------------------------------------]
G[5-55-55-5555555555555------------------------]
D[5-55-55-5555555555555-5-55-55-555-3-33-33-333]x4
A[3-33-33-3333333333333-5-55-55-555-3-33-33-333]
E[----------------------3-33-33-333-1-11-11-111]

solo
e[-----------]
B[-----------]
G[-----------]
D[--2-0-2-0-2]x4
A[3----------]
E[-----------]

verse (2)
e[---------------------------------]
B[---------------------------------]
G[5-5555555555555------------------]
D[5-5555555555555-5-555555-3-333333]x4
A[3-3333333333333-5-555555-3-333333]
E[----------------3-333333-1-111111]
    *************   ******   ******

----repeat: pre verse


----repeat: verse
                        
                        
----repeat: solo        

reef                    
e[------------------------------    --------------------------------]
B[----------------------66------    -----------------------66-666666]
G[55555-55-555555-------55------    -55555-55-555555-------55-555555]
D[55555-55-555555-55555-33-33333 x2 -55555-55-555555-55555-33-333333] x2
A[33333-33-333333-55555----33333    -33333-33-333333-55555----------]
E[----------------33333----11111    -----------------33333----------]


----repeat: verse x2

end
e[-----]
B[-----]
G[5----]
D[5----]
A[3----]
E[-----]
            
Hard to play? Try these video lessons and learn fast. | Correct




comments powered by Disqus
↑ Back to top | Tablatures and chords are parodies/interpretations of the original songs. You may use it for private study, scholarship, research or language learning purposes only