» » »

Don't Tell Me It's Over Bass tabs (ver.1)

Artists:  A B C D E F G H I J K L M N O P Q R S T U V W X Y Z # 

Don't Tell Me It's Over Bass tabs (ver.1)

*Blink 182*
Rating:
0/5 (0 votes)

Hard to play? Try these video lessons and learn fast.
                note : '>' means 8 times

Main Riff
G:---------
D:---------
A:-3>>-----
E:----3>1>-

Little Guitar Solo part
G:---------
D:----3>5>-
A:-3>>-----
E:---------

Bridge
G:-----------------------------------------------------------------
D:-----------------55555-77-333333---------------------------------
A:-33333-33-333333-----------------33333-33-333333-------00--------
E:-------------------------------------------------33333----111111-

G:-----------------------------------------------------------------
D:-----------------55555-33-333333---------------------------------
A:-33333-33-333333-----------------33333-33-333333-----------------
E:-------------------------------------------------33333-11-111111-

End
G:---
D:---
A:-3-
E:---
            
Hard to play? Try these video lessons and learn fast. | Correct




comments powered by Disqus
↑ Back to top | Tablatures and chords are parodies/interpretations of the original songs. You may use it for private study, scholarship, research or language learning purposes only