» » »

*Blink 182*, All Of The Small Things Tabs (ver.15)

Artists:  A B C D E F G H I J K L M N O P Q R S T U V W X Y Z # 

All Of The Small Things Tabs (ver.15)

*Blink 182* Tabs
Rating:
0/5 (0 votes)
All Of The Small Things lessons Tabs too difficult? Try these video lessons and learn fast
                ###################### BLINK 182 - all the small things #####################



this is my first tab and its the real thing ive got back up checks on back up checks
for this tab its 100% right

intro

 E|---------------------------------------------------------------------|
 B|---------------------------------------------------------------------|
 G|-------------------1010101010101010----------------------------------| x2
 D|-1010101010101010--1010101010101010--5-5-5-5-5-5-5-5-5----3-3-3------|
 A|-1010101010101010--8-8-8-8-8-8-8-8---5-5-5-5-5-5-5-5-5----3-3-3------|
 E|-8-8-8-8-8-8-8-8---------------------3-3-3-3-3-3-3-3-3----1-1-1------|

verses

 E|---------------------------------------------------------------------|
 B|---------------------------------------------------------------------|
 G|---------------------------------------------------------------------| x4
 D|-1010101010101010--5-5-5-5-5-5-5-5--3-3-3-3-3-3-3-3--5-5-5-5-5-5-5-5-|
 A|-1010101010101010--5-5-5-5-5-5-5-5--3-3-3-3-3-3-3-3--5-5-5-5-5-5-5-5-|
 E|-8-8-8-8-8-8-8-8---3-3-3-3-3-3-3-3--1-1-1-1-1-1-1-1--3-3-3-3-3-3-3-3-|

 E|---------------------------------------------------------------------|
 B|---------------------------------------------------------------------|
 G|---------------------------------------------------------------------|
 D|-10~~~~~~~~~~~~~~~~~~~~~~~~~~~~~~~~~~~~~~~~~~~~~~~~~~~~~~~~~~~~~~~~~-|
 A|-10~~~~~~~~~~~~~~~~~~~~~~~~~~~~~~~~~~~~~~~~~~~~~~~~~~~~~~~~~~~~~~~~~-|
 E|-8-~~~~~~~~~~~~~~~~~~~~~~~~~~~~~~~~~~~~~~~~~~~~~~~~~~~~~~~~~~~~~~~~~-|

chourus

 E|---------------------------------------------------------------------|
 B|---------------------------------------------------------------------|
 G|---------------------------------------------------------------------| x2
 D|-10101010101010101010101010101010--5-5-5-5-5-5-5-5--3-3-3-3-3-3-3-3--|
 A|-10101010101010101010101010101010--5-5-5-5-5-5-5-5--3-3-3-3-3-3-3-3--|
 E|-8-8-8-8-8-8-8-8-8-8-8-8-8-8-8-8---3-3-3-3-3-3-3-3--1-1-1-1-1-1-1-1--|

solo

 E|---------------------------------------------------------------------|
 B|---------------------------------------------------------------------|
 G|-5-5-5-5-5-5-5-5--10101010-9-9-9-9--7-7-7-7-7-7-7-7-7---5-5-5--------| x2
 D|---------------------------------------------------------------------|
 A|-3-3-3-3-3-3-3-3---8-8-8-8-7-7-7-7--5-5-5-5-5-5-5-5-5---3-3-3--------|
 E|---------------------------------------------------------------------|

verse

 E|---------------------------------------------------------------------|
 B|---------------------------------------------------------------------|
 G|---------------------------------------------------------------------| x2
 D|-1010101010101010--5-5-5-5-5-5-5-5--3-3-3-3-3-3-3-3--5-5-5-5-5-5-5-5-|
 A|-1010101010101010--5-5-5-5-5-5-5-5--3-3-3-3-3-3-3-3--5-5-5-5-5-5-5-5-|
 E|-8-8-8-8-8-8-8-8---3-3-3-3-3-3-3-3--1-1-1-1-1-1-1-1--3-3-3-3-3-3-3-3-|

 E|---------------------------------------------------------------------|
 B|---------------------------------------------------------------------|
 G|---------------------------------------------------------------------|
 D|-10~~~~~~~~~~~~~~~~~~~~~~~~~~~~~~~~~~~~~~~~~~~~~~~~~~~~~~~~~~~~~~~~~-|
 A|-10~~~~~~~~~~~~~~~~~~~~~~~~~~~~~~~~~~~~~~~~~~~~~~~~~~~~~~~~~~~~~~~~~-|
 E|-8-~~~~~~~~~~~~~~~~~~~~~~~~~~~~~~~~~~~~~~~~~~~~~~~~~~~~~~~~~~~~~~~~~-|

 chourus

 E|---------------------------------------------------------------------|
 B|---------------------------------------------------------------------|
 G|---------------------------------------------------------------------| x2
 D|-10101010101010101010101010101010--5-5-5-5-5-5-5-5--3-3-3-3-3-3-3-3--|
 A|-10101010101010101010101010101010--5-5-5-5-5-5-5-5--3-3-3-3-3-3-3-3--|
 E|-8-8-8-8-8-8-8-8-8-8-8-8-8-8-8-8---3-3-3-3-3-3-3-3--1-1-1-1-1-1-1-1--|

verse

 E|---------------------------------------------------------------------|
 B|---------------------------------------------------------------------|
 G|---------------------------------------------------------------------|
 D|-10~~~~~~~~~~~~~~~~~~~~~~~~~~~~~~~~~~~~~~~~~~~~~~~~~~~~~~~~~~~~~~~~~-|
 A|-10~~~~~~~~~~~~~~~~~~~~~~~~~~~~~~~~~~~~~~~~~~~~~~~~~~~~~~~~~~~~~~~~~-|
 E|-8-~~~~~~~~~~~~~~~~~~~~~~~~~~~~~~~~~~~~~~~~~~~~~~~~~~~~~~~~~~~~~~~~~-|

outro

 E|---------------------------------------------------------------------|
 B|---------------------------------------------------------------------|
 G|-5---5---5---5---5---5---5---5---5---5---5---5---4---4---4---4-------| x3
 D|---5---5---5---5---5---5---5---5---5---5---5---5---5---5---5---------|
 A|---------------------------------------------------------------------|
 E|---------------------------------------------------------------------|

 E|---------------------------------------------------------------------|
 B|---------------------------------------------------------------------|
 G|---------------------------------------------------------------------| x4
 D|-10101010101010101010101010101010--5-5-5-5-5-5-5-5--3-3-3-3-3-3-3-3~~|
 A|-10101010101010101010101010101010--5-5-5-5-5-5-5-5--3-3-3-3-3-3-3-3~~|
 E|-8-8-8-8-8-8-8-8-8-8-8-8-8-8-8-8---3-3-3-3-3-3-3-3--1-1-1-1-1-1-1-1~~|
                                                   let ring on last riff
HOPE YOU ROCKERS LIKE IT
            
Submit corrections

comments powered by Disqus
↑ Back to top | *Blink 182* Tabs for All Of The Small Things. Lyrics for acoustic guitar and electric guitar. Tablatures and chords are parodies/interpretations of the original songs. You may use it for private study, scholarship, research or language learning purposes only