» » »

All Of The Small Things Tabs (ver.3)

Artists:  A B C D E F G H I J K L M N O P Q R S T U V W X Y Z # 

All Of The Small Things Tabs (ver.3)

*Blink 182*
Rating:
0/5 (0 votes)

Hard to play? Try these video lessons and learn fast.
                pm=palm mute\n
Intro (x2):\n
e-----------------------------------------------------------|\n
B-----------------------------------------------------------|\n
G-------------------5--------10-----------------------------|\n
D---(5)-----(3)-----5 (x8)---10 (x8)---5--------3XXXXXX33---|\n
A---(5)-----(3)-----3---------8--------5 (x8)---3XXXXXX33---|\n
E---(3)-----(1)------------------------3--------1XXXXXX11---|\n
\n
Verse (x4): (palm mute)\n
All the, small things, true care, truth brings\n
ill take, one lift, your ride, best trip\n
always, i know, youll be, at my show\n
watching, waiting, commiserating\n
e-----------------------------------------------------------|\n
B-----------------------------------------------------------|\n
G---5pm-----------------------------------------------------|\n
D---5pm (x8)---5pm--------3pm--------5pm--------------------|\n
A---3pm--------5pm (x8)---3pm (x8)---5pm (x8)---------------|\n
E--------------3pm--------1pm--------3pm--------------------|\n
\n
PreChorus (x1)\n
Say it ain't so  (let ring)\n
i will not go\n
turn the lights out\n
carry me home\n
e-----------------|\n
B-----------------|\n
G-----5-----------|\n
D-----5-----------|\n
A-----3-----------|\n
E-----------------|\n
\n
Chorus (x2):\n
na na............\n
e----------------------------------------------------------|\n
B----------------------------------------------------------|\n
G---5------------------------------------------------------|\n
D---5 (x12)---5--------3-----------------------------------|\n
A---3---------5 (x8)---3 (x8)------------------------------|\n
E-------------3--------1-----------------------------------|\n
\n
Repeat Intro the same as 1st time except the following change:\n
e------------------|           e-----------------------|\n
B------------------|           B-----------------------|\n
G-------10---------|           G---10--------10--------|\n
D-------10 (x8)----|  becomes  D---10 (x4)---10 (x4)---|      (You'll hear what I'm\n
A--------8---------|           A----8---------7--------|         talking about.)\n
E------------------|           E-----------------------|\n
\n
Repeat verse (x2)(palm mute)\n
late night, come home, work sucks, i know\n
she left me roses by the stairs, surprises let me know she cares\n
\n
PreChorus (x1)\n
Say it ain't so\n
i will not go\n
turn the lights out\n
carry me home\n
\n
Chorus (x2)\n
na na..........\n
\n
Break @ 1:45 (palm mute):\n
e------------------|\n
B------------------|\n
G---5pm------------| (x27, i think,(its a lot of times))\n
D-------5pm--------|\n
A------------------|\n
E------------------|\n
\n
Chorus (x2)\n
say it aint so i will not go, turn the lights out, carry me home\n
keep your head still ill be your thrill, the night will go on, my little windmill\n
\n
Outro:\n
say it aint so i will not go, turn the lights out, carry me home\n
e----------------------------------------------------|\n
B----------------------------------------------------|\n
G---5------------------------------------------------|\n
D---5 (x12)---5----------5pm-----5--5pm-----5--------|\n
A---3---------5 (x8)-----5pm (x2)5--5pm (x2)5--------|\n
E-------------3----------3pm-----3--3pm-----3--------|\n
\n
keep your head still ill be your thrill, the night will go on, itll will go on, my little windmill\n
e-------------------------------------------------------|\n
B-------------------------------------------------------|\n
G---5---------------------------------------------------|\n
D---5 (x12)---5----------5------5------5------5------3--|\n
A---3---------5 (x8)-----5 (x3)-5 (x3)-5 (x3)-5 (x3)-3--|\n
E-------------3----------3------3------3------3------1--|
</HTML>
            
Hard to play? Try these video lessons and learn fast. | Correct




comments powered by Disqus
↑ Back to top | Tablatures and chords are parodies/interpretations of the original songs. You may use it for private study, scholarship, research or language learning purposes only