» » »

*Blink 182*, All Of The Small Things Tabs (ver.2)

Artists:  A B C D E F G H I J K L M N O P Q R S T U V W X Y Z # 

All Of The Small Things Tabs (ver.2)

*Blink 182* Tabs
 Rating:
4/5 (4 votes)
All Of The Small Things lessons Tabs too difficult? Try these video lessons and learn fast
1
                E|----------------|
B|----------------|
G|----------------|
D|----------5-3---|
A|----------5-3---|
E|----------3-1---|

Intro: (0:00)

E|----------------|----------------|----------------|----------------|
B|----------------|6-6-6-6-6-6-6-6-|----------------|----------------|
G|5-5-5-5-5-5-5-5-|5-5-5-5-5-5-5-5-|----------------|----------------| 2x
D|5-5-5-5-5-5-5-5-|3-3-3-3-3-3-3-3-|5-5-5-5-5-5-5-5-|5-x-x-x-x-3-3---|
A|3-3-3-3-3-3-3-3-|----------------|5-5-5-5-5-5-5-5-|5-x-x-x-x-3-3---|
E|----------------|----------------|3-3-3-3-3-3-3-3-|3-x-x-x-x-1-1---|

Verse (Palm Muted): (0:13)

E|----------------|----------------|----------------|----------------|
B|----------------|----------------|----------------|----------------|
G|5-5-5-5-5-5-5-5-|----------------|----------------|----------------| 4x
D|5-5-5-5-5-5-5-5-|5-5-5-5-5-5-5-5-|3-3-3-3-3-3-3-3-|5-5-5-5-5-5-5-5-|
A|3-3-3-3-3-3-3-3-|5-5-5-5-5-5-5-5-|3-3-3-3-3-3-3-3-|5-5-5-5-5-5-5-5-|
E|----------------|3-3-3-3-3-3-3-3-|1-1-1-1-1-1-1-1-|3-3-3-3-3-3-3-3-|

Pre-Chorus (Let Ring): (0:39)

E|----------------|----------------|----------------|----------------|
B|----------------|----------------|----------------|----------------|
G|5---------------|----------------|----------------|----------------|
D|5---------------|----------------|----------------|----------------|
A|3---------------|----------------|----------------|----------------|
E|----------------|----------------|----------------|----------------|

Chorus: (0:45)

E|----------------|----------------|----------------|----------------|
B|----------------|----------------|----------------|----------------|
G|5-5-5-5-5-5-5-5-|5-5-5-5-5-5-5-5-|----------------|----------------| 2x
D|5-5-5-5-5-5-5-5-|5-5-5-5-5-5-5-5-|5-5-5-5-5-5-5-5-|3-3-3-3-3-3-3-3-|
A|3-3-3-3-3-3-3-3-|3-3-3-3-3-3-3-3-|5-5-5-5-5-5-5-5-|3-3-3-3-3-3-3-3-|
E|----------------|----------------|3-3-3-3-3-3-3-3-|1-1-1-1-1-1-1-1-|

Intro 2: (0:58)

E|----------------|----------------|----------------|----------------|
B|----------------|----------------|----------------|----------------|
G|5-5-5-5-5-5-5-5-|101010109-9-9-9-|7-7-7-7-7-7-7-7-|7-x-x-x-x-------| 2x
D|5-5-5-5-5-5-5-5-|101010109-9-9-9-|7-7-7-7-7-7-7-7-|7-x-x-x-x-3-3---|
A|3-3-3-3-3-3-3-3-|8-8-8-8-7-7-7-7-|5-5-5-5-5-5-5-5-|5-x-x-x-x-3-3---|
E|----------------|----------------|----------------|----------1-1---|

Verse 2 (Palm Muted): (1:11)

E|----------------|----------------|----------------|----------------|
B|----------------|----------------|----------------|----------------|
G|5-5-5-5-5-5-5-5-|----------------|----------------|----------------| 2x
D|5-5-5-5-5-5-5-5-|5-5-5-5-5-5-5-5-|3-3-3-3-3-3-3-3-|5-5-5-5-5-5-5-5-|
A|3-3-3-3-3-3-3-3-|5-5-5-5-5-5-5-5-|3-3-3-3-3-3-3-3-|5-5-5-5-5-5-5-5-|
E|----------------|3-3-3-3-3-3-3-3-|1-1-1-1-1-1-1-1-|3-3-3-3-3-3-3-3-|

Pre-Chorus 2 (Let Ring): (1:24) 

E|----------------|----------------|----------------|----------------|
B|----------------|----------------|----------------|----------------|
G|5---------------|----------------|----------------|----------------|
D|5---------------|----------------|----------------|----------------|
A|3---------------|----------------|----------------|----------------|
E|----------------|----------------|----------------|----------------|

Chorus 2: (1:31)

E|----------------|----------------|----------------|----------------|
B|----------------|----------------|----------------|----------------|
G|5-5-5-5-5-5-5-5-|5-5-5-5-5-5-5-5-|----------------|----------------| 2x
D|5-5-5-5-5-5-5-5-|5-5-5-5-5-5-5-5-|5-5-5-5-5-5-5-5-|3-3-3-3-3-3-3-3-|
A|3-3-3-3-3-3-3-3-|3-3-3-3-3-3-3-3-|5-5-5-5-5-5-5-5-|3-3-3-3-3-3-3-3-|
E|----------------|----------------|3-3-3-3-3-3-3-3-|1-1-1-1-1-1-1-1-|

Interlude (1 Guitar): (1:44)

E|----------------|----------------|----------------|----------------|
B|----------------|----------------|6~~~~~~~~~~~~~~~|8~~~~~~~~~~~~~~~|
G|5~~~~~~~~~~~~~~~|~~~~~~~~~~~~~~~~|5~~~~~~~~~~~~~~~|7~~~~~~~~~~~~~~~| 4x
D|5~~~~~~~~~~~~~~~|~~~~~~~~~~~~~~~~|3~~~~~~~~~~~~~~~|5~~~~~~~~~~~~~~~|
A|3~~~~~~~~~~~~~~~|~~~~~~~~~~~~~~~~|----------------|----------------|
E|----------------|----------------|----------------|----------------|

Interlude (2 Guitar): (1:50)

 |-----------------------------Palm Muted----------------------------|
E|----------------|----------------|----------------|----------------|
B|----------------|----------------|----------------|----------------| 3x
G|5---5---5---5---|5---5---5---5---|5---5---5---5---|4---4---4---4---|
D|--5---5---5---5-|--5---5---5---5-|--5---5---5---5-|--5---5---5---5-|
A|----------------|----------------|----------------|----------------|
E|----------------|----------------|----------------|----------------|

Outro: (2:09)

E|----------------|----------------|----------------|----------------|
B|----------------|----------------|----------------|----------------|
G|5-5-5-5-5-5-5-5-|5-5-5-5-5-5-5-5-|----------------|----------------| 2x
D|5-5-5-5-5-5-5-5-|5-5-5-5-5-5-5-5-|5-5-5-5-5-5-5-5-|3-3-3-3-3-3-3-3-|
A|3-3-3-3-3-3-3-3-|3-3-3-3-3-3-3-3-|5-5-5-5-5-5-5-5-|3-3-3-3-3-3-3-3-|
E|----------------|----------------|3-3-3-3-3-3-3-3-|1-1-1-1-1-1-1-1-|

E|----------------|----------------|----------------|----------------|
B|----------------|----------------|----------------|----------------|
G|5-5-5-5-5-5-5-5-|5-5-5-5-5-5-5-5-|----------------|----------------| 2x
D|5-5-5-5-5-5-5-5-|5-5-5-5-5-5-5-5-|5-5-5-5-5-5-5-5-|x-x-3---x-x-3---|
A|3-3-3-3-3-3-3-3-|3-3-3-3-3-3-3-3-|5-5-5-5-5-5-5-5-|x-x-3---x-x-3---|
E|----------------|----------------|3-3-3-3-3-3-3-3-|x-x-1---x-x-1---|

E|----------------|----------------|
B|----------------|----------------|
G|----------------|5---------------|
D|x-x-3---x-x-3---|5---------------|
A|x-x-3---x-x-3---|3---------------|
E|x-x-1---x-x-1---|----------------|


By Adolfo (Plastick)
            
Submit corrections

comments powered by Disqus
↑ Back to top | *Blink 182* Tabs for All Of The Small Things. Lyrics for acoustic guitar and electric guitar. 1 Tablatures and chords are parodies/interpretations of the original songs. You may use it for private study, scholarship, research or language learning purposes only