» » »

All Of This Tabs (ver.3)

Artists:  A B C D E F G H I J K L M N O P Q R S T U V W X Y Z # 

All Of This Tabs (ver.3)

*Blink 182*
Rating:
0/5 (0 votes)

Hard to play? Try these video lessons and learn fast.
                
Intro:
|-----------------------------------------------|
|-----------------------------------------------|
|-----------------------------------------------|	
|--4/6/7/9\7--7/9/11—-11/12\9-9--4/6/7/9\7--7---| 2x
|--x—x-x-x-x—-x—x--x—--x--x-x—x--x—x-x-x-x--x---|
|--2/4/5/7\5--5/7/-9---9/10\7-7--2/4/5/7\5--5---|
   =          =        =      =  =          =
         (strike chords that are underlined)

Verse:
|----------------------------------|
|----------------------------------|
|--------------------444--666--7---|
|--4444444444444444--xxx--xxx--x---| 4x
|--xxxxxxxxxxxxxxxx--222--444--5---|
|--2222222222222222----------------|

Chorus:
|-----------------------------------------|
|-----------------------------------------|
|-----------------------------------------|
|--444444444444--2222--7777777777777777---| 2x
|--xxxxxxxxxxxx--xxxx--xxxxxxxxxxxxxxxx---|
|--222222222222--0000--5555555555555555---|

Pre-Verse:
|-----------------------------------------------|
|-----------------------------------------------|
|-----------------------------------------------|	
|--4/6/7/9\7--7/9/11—-11/12\9-9--4/6/7/9\7--7---| 2x
|--x—x-x-x-x—-x—x--x—--x--x-x—x--x—x-x-x-x--x---|
|--2/4/5/7\5--5/7/-9---9/10\7-7--2/4/5/7\5--5---|
   =          =        =      =  =          =

Verse 2:
|----------------------------------|
|----------------------------------|
|--------------------444--666--7---|
|--4444444444444444--xxx--xxx--x---| 4x
|--xxxxxxxxxxxxxxxx--222--444--5---|
|--2222222222222222----------------|

Chorus:
|-----------------------------------------|
|-----------------------------------------|
|-----------------------------------------|
|--444444444444--2222--7777777777777777---| 2x
|--xxxxxxxxxxxx--xxxx--xxxxxxxxxxxxxxxx---|
|--222222222222--0000--5555555555555555---|

Bridge:
|-----------------------------------------------|
|-----------------------------------------------|
|-----------------------------------------------|	
|--4/6/7/9\7--7/9/11—-11/12\9-9--4/6/7/9\7--7---| 2x
|--x—x-x-x-x—-x—x--x—--x--x-x—x--x—x-x-x-x--x---|
|--2/4/5/7\5--5/7/-9---9/10\7-7--2/4/5/7\5--5---|
   =          =        =      =  =          =
             
|---------------------------------------------|
|---------------------------------------------|
|---------------------------------------------|
|-----7----7----7---66----7----7----7---77----| 4x
|---------------------------------------------|
|--55---55---55---4----55---55---55---9-------|

Chorus:
|-----------------------------------------|
|-----------------------------------------|
|-----------------------------------------|
|--444444444444--2222--7777777777777777---| 2x
|--xxxxxxxxxxxx--xxxx--xxxxxxxxxxxxxxxx---|
|--222222222222--0000--5555555555555555---|

Bridge:
|-----------------------------------------------|
|-----------------------------------------------|
|-----------------------------------------------|	
|--4/6/7/9\7--7/9/11—-11/12\9-9--4/6/7/9\7--7---| 2x
|--x—x-x-x-x—-x—x--x—--x--x-x—x--x—x-x-x-x--x---|
|--2/4/5/7\5--5/7/-9---9/10\7-7--2/4/5/7\5--5---|
   =          =        =      =  =          =
             
|----------------------------------|
|----------------------------------|
|--6666666666666666--444--666------|
|--xxxxxxxxxxxxxxxx--xxx--xxx--7---| 2x
|--4444444444444444--222--444--x---|
|------------------------------5---|

Verse 3:
|----------------------------------|
|----------------------------------|
|--------------------444--666--7---|
|--4444444444444444--xxx--xxx--x---| 4x
|--xxxxxxxxxxxxxxxx--222--444--5---|
|--2222222222222222----------------|
  
             THE END
            
Hard to play? Try these video lessons and learn fast. | Correct




comments powered by Disqus
↑ Back to top | Tablatures and chords are parodies/interpretations of the original songs. You may use it for private study, scholarship, research or language learning purposes only