» » »

*Blink 182*, All Of This Tabs (ver.1)

Artists:  A B C D E F G H I J K L M N O P Q R S T U V W X Y Z # 

All Of This Tabs (ver.1)

*Blink 182* Tabs
 Rating:
4/5 (4 votes)
All Of This lessons Tabs too difficult? Try these video lessons and learn fast
1
                  Artist  : Blink 182 feat. Robert Smith
  Title   : All Of This
  Year    : 2003
  Tuning  : Normal
  Keys    : /=Slide  *=Ring


[Intro]
e|----------------------------------------------------------------------------------------------|
B|----------------------------------------------------------------------------------------------|
G|----------------------------------------------------------------------------------------------|
D|-04----04/-06-07----07/-09-11----11/-12-09----09---444--666-----------------------------------|X2
A|-xx----xx/-xx-xx----xx/-xx-xx----xx/-xx-xx----xx---xxx--xxx--2*-------------------------------|
E|-02----02/-04-05----05/-07-09----09/-10-07----07---222--444--0*-------------------------------|
 |                                                                                              |


[Verse]
e|----------------------------------------------------------------------------------------------|
B|----------------------------------------------------------------------------------------------|
G|----------------------------------------------------------------------------------------------|
D|-06-06-06-06-06-06-06-06-06-06-06-06-06-06-06-06---444--666-----------------------------------|
A|-xx-xx-xx-xx-xx-xx-xx-xx-xx-xx-xx-xx-xx-xx-xx-xx---xxx--xxx--2*-------------------------------|
E|-04-04-04-04-04-04-04-04-04-04-04-04-04-04-04-04---222--444--0*-------------------------------|
 | With all of this I know now, Everything inside of my head                                    |


e|----------------------------------------------------------------------------------------------|
B|----------------------------------------------------------------------------------------------|
G|----------------------------------------------------------------------------------------------|
D|-06-06-06-06-06-06-06-06-06-06-06-06-06-06-06-06---444--666-----------------------------------|
A|-xx-xx-xx-xx-xx-xx-xx-xx-xx-xx-xx-xx-xx-xx-xx-xx---xxx--xxx--2*-------------------------------|
E|-04-04-04-04-04-04-04-04-04-04-04-04-04-04-04-04---222--444--0*-------------------------------|
 | It all just goes to show how, Nothing I know changes me at all                               |


e|----------------------------------------------------------------------------------------------|
B|----------------------------------------------------------------------------------------------|
G|----------------------------------------------------------------------------------------------|
D|-06-06-06-06-06-06-06-06-06-06-06-06-06-06-06-06---444--666-----------------------------------|
A|-xx-xx-xx-xx-xx-xx-xx-xx-xx-xx-xx-xx-xx-xx-xx-xx---xxx--xxx--2*-------------------------------|
E|-04-04-04-04-04-04-04-04-04-04-04-04-04-04-04-04---222--444--0*-------------------------------|
 | Again I wait for this to change instead, To tear the world in two                            |


e|----------------------------------------------------------------------------------------------|
B|----------------------------------------------------------------------------------------------|
G|----------------------------------------------------------------------------------------------|
D|-06-06-06-06-06-06-06-06-06-06-06-06-06-06-06-06---444--666-----------------------------------|
A|-xx-xx-xx-xx-xx-xx-xx-xx-xx-xx-xx-xx-xx-xx-xx-xx---xxx--xxx--2*-------------------------------|
E|-04-04-04-04-04-04-04-04-04-04-04-04-04-04-04-04---222--444--0*-------------------------------|
 | Another night with her, But I'm always wanting you                                           |


[Chorus]
e|----------------------------------------------------------------------------------------------|
B|----------------------------------------------------------------------------------------------|
G|----------------------------------------------------------------------------------------------|
D|-04-04-04-04-04-04-04-04-04-04-04-04--06-06-06--07-07-07-07-07-07-07-07-07-07-07-07-----------|
A|-xx-xx-xx-xx-xx-xx-xx-xx-xx-xx-xx-xx--xx-xx-xx--xx-xx-xx-xx-xx-xx-xx-xx-xx-xx-xx-xx-----------|
E|-02-02-02-02-02-02-02-02-02-07-07-07--04-04-04--05-05-05-05-05-05-05-05-05-05-05-05-----------|
 | Use me Holly come on and use me (We Know where we go)                                        |


e|----------------------------------------------------------------------------------------------|
B|----------------------------------------------------------------------------------------------|
G|----------------------------------------------------------------------------------------------|
D|-04-04-04-04-04-04-04-04-04-04-04-04--06-06-06--07-07-07-07-07-07-07-07-07-07-07-07-----------|
A|-xx-xx-xx-xx-xx-xx-xx-xx-xx-xx-xx-xx--xx-xx-xx--xx-xx-xx-xx-xx-xx-xx-xx-xx-xx-xx-xx-----------|
E|-02-02-02-02-02-02-02-02-02-07-07-07--04-04-04--05-05-05-05-05-05-05-05-05-05-05-05-----------|
 | Use me Holly come on and use me (We go where we know)                                        |


[Break]
e|----------------------------------------------------------------------------------------------|
B|----------------------------------------------------------------------------------------------|
G|----------------------------------------------------------------------------------------------|
D|-04----04/-06-07----07/-09-11----11/-12-09----09---444--666-----------------------------------|X2
A|-xx----xx/-xx-xx----xx/-xx-xx----xx/-xx-xx----xx---xxx--xxx--2*-------------------------------|
E|-02----02/-04-05----05/-07-09----09/-10-07----07---222--444--0*-------------------------------|
 |                                                                                              |


[Verse]
e|----------------------------------------------------------------------------------------------|
B|----------------------------------------------------------------------------------------------|
G|----------------------------------------------------------------------------------------------|
D|----------------------------------------------------------------------------------------------|
A|----------------------------------------------------------------------------------------------|
E|----------------------------------------------------------------------------------------------|
 | With all of this I feel now, Everything inside of my heart                                   |


e|----------------------------------------------------------------------------------------------|
B|----------------------------------------------------------------------------------------------|
G|----------------------------------------------------------------------------------------------|
D|----------------------------------------------------------------------------------------------|
A|----------------------------------------------------------------------------------------------|
E|----------------------------------------------------------------------------------------------|
 | It all just seems to be how, Nothing I feel pulls at me at all                               |


e|----------------------------------------------------------------------------------------------|
B|----------------------------------------------------------------------------------------------|
G|----------------------------------------------------------------------------------------------|
D|-06-06-06-06-06-06-06-06-06-06-06-06-06-06-06-06---444--666-----------------------------------|
A|-xx-xx-xx-xx-xx-xx-xx-xx-xx-xx-xx-xx-xx-xx-xx-xx---xxx--xxx--2*-------------------------------|
E|-04-04-04-04-04-04-04-04-04-04-04-04-04-04-04-04---222--444--0*-------------------------------|
 | Again I wait for this to pull apart, To break my time in two                                 |


e|----------------------------------------------------------------------------------------------|
B|----------------------------------------------------------------------------------------------|
G|----------------------------------------------------------------------------------------------|
D|-06-06-06-06-06-06-06-06-06-06-06-06-06-06-06-06---444--666-----------------------------------|
A|-xx-xx-xx-xx-xx-xx-xx-xx-xx-xx-xx-xx-xx-xx-xx-xx---xxx--xxx--2*-------------------------------|
E|-04-04-04-04-04-04-04-04-04-04-04-04-04-04-04-04---222--444--0*-------------------------------|
 | Another night with her, But I'm always wanting you                                           |


[Chorus]
e|----------------------------------------------------------------------------------------------|
B|----------------------------------------------------------------------------------------------|
G|----------------------------------------------------------------------------------------------|
D|-04-04-04-04-04-04-04-04-04-04-04-04--06-06-06--07-07-07-07-07-07-07-07-07-07-07-07-----------|
A|-xx-xx-xx-xx-xx-xx-xx-xx-xx-xx-xx-xx--xx-xx-xx--xx-xx-xx-xx-xx-xx-xx-xx-xx-xx-xx-xx-----------|
E|-02-02-02-02-02-02-02-02-02-07-07-07--04-04-04--05-05-05-05-05-05-05-05-05-05-05-05-----------|
 | Use me Holly come on and use me (We know where we go)                                        |


e|----------------------------------------------------------------------------------------------|
B|----------------------------------------------------------------------------------------------|
G|----------------------------------------------------------------------------------------------|
D|-04-04-04-04-04-04-04-04-04-04-04-04--06-06-06--07-07-07-07-07-07-07-07-07-07-07-07-----------|
A|-xx-xx-xx-xx-xx-xx-xx-xx-xx-xx-xx-xx--xx-xx-xx--xx-xx-xx-xx-xx-xx-xx-xx-xx-xx-xx-xx-----------|
E|-02-02-02-02-02-02-02-02-02-07-07-07--04-04-04--05-05-05-05-05-05-05-05-05-05-05-05-----------|
 | Use me Holly come on and use me (We go where we know)                                        |


[Break]
e|----------------------------------------------------------------------------------------------|
B|----------------------------------------------------------------------------------------------|
G|----------------------------------------------------------------------------------------------|
D|-04----04/-06-07----07/-09-11----11/-12-09----09----------------------------------------------|
A|-xx----xx/-xx-xx----xx/-xx-xx----xx/-xx-xx----xx----------------------------------------------|
E|-02----02/-04-05----05/-07-09----09/-10-07----07----------------------------------------------|
 | She's all I need, She's all I dream                                                          |

e|----------------------------------------------------------------------------------------------|
B|----------------------------------------------------------------------------------------------|
G|----------------------------------------------------------------------------------------------|
D|-04----04/-06-07----07/-09-11----11/-12-09----09----------------------------------------------|
A|-xx----xx/-xx-xx----xx/-xx-xx----xx/-xx-xx----xx----------------------------------------------|
E|-02----02/-04-05----05/-07-09----09/-10-07----07----------------------------------------------|
 | She's all I'm always wanting                                                                 |

e|----------------------------------------------------------------------------------------------|
B|----------------------------------------------------------------------------------------------|
G|----------------------------------------------------------------------------------------------|
D|-04----04/-06-07----07/-09-11----11/-12-09----09----------------------------------------------|
A|-xx----xx/-xx-xx----xx/-xx-xx----xx/-xx-xx----xx----------------------------------------------|
E|-02----02/-04-05----05/-07-09----09/-10-07----07----------------------------------------------|
 | She's all I need, She's all I dream                                                          |

e|----------------------------------------------------------------------------------------------|
B|----------------------------------------------------------------------------------------------|
G|----------------------------------------------------------------------------------------------|
D|-04----04/-06-07----07/-09-11----11/-12-09----09----------------------------------------------|
A|-xx----xx/-xx-xx----xx/-xx-xx----xx/-xx-xx----xx----------------------------------------------|
E|-02----02/-04-05----05/-07-09----09/-10-07----07----------------------------------------------|
 | She's all, I'm always wanting you...                                                         |


[Intrelude]
e|----------------------------------------------------------------------------------------------|
B|----------------------------------------------------------------------------------------------|
G|--2--2--2---1-1---2--2--2---1-----------------------------------------------------------------|
D|-------------------------------2--------------------------------------------------------------|
A|----------------------------------------------------------------------------------------------|
E|----------------------------------------------------------------------------------------------|
 |you...                                                                                        |

e|----------------------------------------------------------------------------------------------|
B|----------------------------------------------------------------------------------------------|
G|--2--2--2---1-1---2--2--2---1-----------------------------------------------------------------|
D|-------------------------------2--------------------------------------------------------------|
A|----------------------------------------------------------------------------------------------|
E|----------------------------------------------------------------------------------------------|
 | I'm always wanting you


e|----------------------------------------------------------------------------------------------|
B|----------------------------------------------------------------------------------------------|
G|--2--2--2---1-1---2--2--2---1-----------------------------------------------------------------|
D|-------------------------------2--------------------------------------------------------------|
A|----------------------------------------------------------------------------------------------|
E|----------------------------------------------------------------------------------------------|
 |                                                                                              |

e|----------------------------------------------------------------------------------------------|
B|----------------------------------------------------------------------------------------------|
G|--2--2--2---1-1---2--2--2---1-----------------------------------------------------------------|
D|-------------------------------2--------------------------------------------------------------|
A|----------------------------------------------------------------------------------------------|
E|----------------------------------------------------------------------------------------------|
 | I'm always wanting you                                                                       |


[Repeat]
e|----------------------------------------------------------------------------------------------|
B|----------------------------------------------------------------------------------------------|
G|--2--2--2---1-1---2--2--2---1-----------------------------------------------------------------|
D|-------------------------------2--------------------------------------------------------------|
A|----------------------------------------------------------------------------------------------|x4
E|----------------------------------------------------------------------------------------------|
 |                                                                                              |


[Chorus]
e|----------------------------------------------------------------------------------------------|
B|----------------------------------------------------------------------------------------------|
G|----------------------------------------------------------------------------------------------|
D|-04-04-04-04-04-04-04-04-04-04-04-04--06-06-06--07-07-07-07-07-07-07-07-07-07-07-07-----------|
A|-xx-xx-xx-xx-xx-xx-xx-xx-xx-xx-xx-xx--xx-xx-xx--xx-xx-xx-xx-xx-xx-xx-xx-xx-xx-xx-xx-----------|
E|-02-02-02-02-02-02-02-02-02-07-07-07--04-04-04--05-05-05-05-05-05-05-05-05-05-05-05-----------|
 | Use me Holly come on and use me (We go where we know)                                        |


e|----------------------------------------------------------------------------------------------|
B|----------------------------------------------------------------------------------------------|
G|----------------------------------------------------------------------------------------------|
D|-04-04-04-04-04-04-04-04-04-04-04-04--06-06-06--07-07-07-07-07-07-07-07-07-07-07-07-----------|
A|-xx-xx-xx-xx-xx-xx-xx-xx-xx-xx-xx-xx--xx-xx-xx--xx-xx-xx-xx-xx-xx-xx-xx-xx-xx-xx-xx-----------|
E|-02-02-02-02-02-02-02-02-02-07-07-07--04-04-04--05-05-05-05-05-05-05-05-05-05-05-05-----------|
 | Use me Holly come on and use me (We go where we know)                                        |


[Break]
e|----------------------------------------------------------------------------------------------|
B|----------------------------------------------------------------------------------------------|
G|----------------------------------------------------------------------------------------------|
D|-04----04/-06-07----07/-09-11----11/-12-09----09----------------------------------------------|
A|-xx----xx/-xx-xx----xx/-xx-xx----xx/-xx-xx----xx----------------------------------------------|
E|-02----02/-04-05----05/-07-09----09/-10-07----07----------------------------------------------|
 | She's all I need, She's all I dream                                                          |

e|----------------------------------------------------------------------------------------------|
B|----------------------------------------------------------------------------------------------|
G|----------------------------------------------------------------------------------------------|
D|-04----04/-06-07----07/-09-11----11/-12-09----09----------------------------------------------|
A|-xx----xx/-xx-xx----xx/-xx-xx----xx/-xx-xx----xx----------------------------------------------|
E|-02----02/-04-05----05/-07-09----09/-10-07----07----------------------------------------------|
 | She's all I'm always wanting                                                                 |

e|----------------------------------------------------------------------------------------------|
B|----------------------------------------------------------------------------------------------|
G|----------------------------------------------------------------------------------------------|
D|-04----04/-06-07----07/-09-11----11/-12-09----09----------------------------------------------|
A|-xx----xx/-xx-xx----xx/-xx-xx----xx/-xx-xx----xx----------------------------------------------|
E|-02----02/-04-05----05/-07-09----09/-10-07----07----------------------------------------------|
 | She's all I need, She's all I dream                                                          |

e|----------------------------------------------------------------------------------------------|
B|----------------------------------------------------------------------------------------------|
G|----------------------------------------------------------------------------------------------|
D|-04----04/-06-07----07/-09-11----11/-12-09----09----------------------------------------------|
A|-xx----xx/-xx-xx----xx/-xx-xx----xx/-xx-xx----xx----------------------------------------------|
E|-02----02/-04-05----05/-07-09----09/-10-07----07----------------------------------------------|
 | She's all, I'm always wanting you...                                                         |


[Break]
e|----------------------------------------------------------------------------------------------|
B|----------------------------------------------------------------------------------------------|
G|----------------------------------------------------------------------------------------------|
D|-06-06-06-06-06-06-06-06-06-06-06-06-06-06-06-06---444--666-----------------------------------|
A|-xx-xx-xx-xx-xx-xx-xx-xx-xx-xx-xx-xx-xx-xx-xx-xx---xxx--xxx--2*-------------------------------|x2
E|-04-04-04-04-04-04-04-04-04-04-04-04-04-04-04-04---222--444--0*-------------------------------|
 |                                                                                              |

 [There is no guitar in the rest of the song]
            
Submit corrections

comments powered by Disqus
↑ Back to top | *Blink 182* Tabs for All Of This. Lyrics for acoustic guitar and electric guitar. 1 Tablatures and chords are parodies/interpretations of the original songs. You may use it for private study, scholarship, research or language learning purposes only