» » »

*Blink 182*, Alien Exist Tabs (ver.9)

Artists:  A B C D E F G H I J K L M N O P Q R S T U V W X Y Z # 

Alien Exist Tabs (ver.9)

*Blink 182* Tabs
 Rating:
4/5 (4 votes)
Alien Exist lessons Tabs too difficult? Try these video lessons and learn fast
1
                Artist/ Band: Blink 182


Alright here it is about 98% but it’s a good place to start.  Ignore the timing im at 
school again. These are just the notes.  This is how its played on 'The Mark, Tom & Travis 
show' but 'Enema of the State' shouldn't be too different.

Intro
E-------------------
B-------------------
G—4444444444444—4---
D—4444444444444—4---
A—2222222222222—2---
E-------------------
Pm_____________

Cool guitar part
E----------------------------------------------
B----------------------------------------------
G-4-4-4-4--4-4---------------------------------  x 2
D-4-4-4-4--4-4--2-2-2-2-6-6-6-6--6-6-2-2-2-2---
A-2-2-2-2--2-2--2-2-2-2-6-6-6-6--6-6-2-2-2-2---
E---------------0-0-0-0—4-4-4—4--4-4-0-0-0-0---

Verse
E--------------------------------------
B--------------------------------------
G-------------------------------------- x 2
D-44444444-----------------------------
A-22222222-44444444-66666666-22222222--
E----------22222222-44444444-00000000--
Pm___________________________________
This part is quick up n down stroking

E--------------------------------------
B--------------------------------------
G--------------------------------------
D-44444444-66666666-99999999-----------
A-22222222-44444444-77777777-22222222--
E----------------------------00000000--
Pm___________________________________
Then first part on the verse.

Chorus
E------------------------------
B------------------------------
G-4444444444-------------------
D-4444444444-22-444444444444---
A-2222222222-22-444444444444---
E------------00-222222222222---
Up n down stroking      

Bridge (palm muted)
E----------------------------------
B----------------------------------
G----------------------------------
D-444-444-444-444-999-999-999-999--
A-222-222-222-222-777-777-777-777--
E----------------------------------

E------------------
B------------------
G---------4--------
D-4---2---4---4---2
A-4---2---2---4---2
E-2---0-------2---0
 Then into the ‘cool guitar’ part

Then repeat Verse 1 for verse 2
Chorus

“Solo”
E--------------------
B--------------------
G-4444444444444444---
D-4444444444444444---
A-2222222222222222---
E--------------------
(For however long needed)

Then
E------------------------------------
B------------------------------------
G-88888888666666669999999988888888---
D-88888888666666669999999988888888---
A-66666666444444447777777766666666---
E------------------------------------

 Dark and scary…
E-----------------------------
B-----------------------------
G-44444444-------------------- x 2
D-44444444-44444444-22222222--
A-22222222-44444444-22222222--
E----------22222222-00000000—

Chorus 

Then bridge and end off with a B5.
            
Submit corrections

comments powered by Disqus
↑ Back to top | *Blink 182* Tabs for Alien Exist. Lyrics for acoustic guitar and electric guitar. 1 Tablatures and chords are parodies/interpretations of the original songs. You may use it for private study, scholarship, research or language learning purposes only