» » »

*Blink 182*, Alien Exist Tabs (ver.3)

Artists:  A B C D E F G H I J K L M N O P Q R S T U V W X Y Z # 

Alien Exist Tabs (ver.3)

*Blink 182* Tabs
Rating:
0/5 (0 votes)
Alien Exist lessons Tabs too difficult? Try these video lessons and learn fast
                Please Rate this tab !

Intro. 1

E---------------------------------
B---------------------------------
G---4x-x-x-x-x-x-x-4~-------------
D---4x-x-x-x-x-x-x-4~-------------
A---2x-x-x-x-x-x-x-2~-------------
E--------------------------------
Intro. 2 
E------------------------------------------
B------------------------------------------
G--4-4-4-4---------------------------------     2X
D--4-4-4-4---2-2-2-2---6-6-6-6---2-2-2-2---
A--2-2-2-2---2-2-2-2---6-6-6-6---2-2-2-2---
E------------0-0-0-0---4-4-4-4--0-0-0-0----


Verse – what if people knew these things were real…

E--------------------------------------------------
B--------------------------------------------------
G--4-x-x-x-x---------------------------------------
D--4-x-x-x-x--2-x-x-x-x--6-x-x-x-x--2-x-x-x-x------   2x
A--2-x-x-x-x--2-x-x-x-x--6-x-x-x-x--2-x-x-x-x------
E-------------0-x-x-x-x--4-x-x-x-x--0-x-x-x-x------

Verse continued – I know the CIA would say, what you hear is all hearsay..

E------------------------------------------------------------------------
B------------------------------------------------------------------------
G--4-x-x-x-x--6-x-x-x-x-------------------------4-x-x-x-x----------------
D--4-x-x-x-x--6-x-x-x-x--6-x-x-x-x---2-x-x-x-x--4-x-x-x-x--4-x-x-x-x-----
A--2-x-x-x-x--4-x-x-x-x--6-x-x-x-x---2-x-x-x-x--2-x-x-x-x--4-x-x-x-x-----
E------------------------4-x-x-x-x---0-x-x-x-x-------------2-x-x-x-x-----

E------------------------
B------------------------
G------------------------
D---6-x-x-x-x------6-----
A---6-x-x-x-x------6-----
E---4-x-x-x-x------4-----

Chorus – up all night long, and there’s something very wrong.

E-----------------------------------
B-----------------------------------
G--4-4-4-4-4-4-4-4------------------  2x
D--4-4-4-4-4-4-4-4---4-4-4-4-4-4-4--
A--2-2-2-2-2-2-2-2---4-4-4-4-4-4-4--
E--------------------2-2-2-2-2-2-2--

Interlude – know it must be late, been gone since yesterday….

E------------------------------------------------------------
B------------------------------------------------------------
G---------------------------------9-9----9-9----9-9----9-9---  2x
D---6-6----6-6----6-6----6-6------9-9----9-9----9-9----9-9---
A---6-6----6-6----6-6----6-6------7-7----7-7----7-7----7-7---
E---4-4----4-4----4-4----4-4---------------------------------
 p.m………………………………………………………..................................

Fill in – I’m not like you guys…. I’m not like you 

E-----------------------
B-----------------------
G------------4~---------  2x
D----4-------4~---------
A----4---2---2~--------
E----2---0--------------
 
Solo

E------------------------------------------------------------------------------
B------------------------------------------------------------------------------
G---4-4-4-4-4-4-4-4-4-4-4-4---8-8-8-8-8-8---6-6-6-6-6---9-9-9-9-9---8-8-8-8-8---
D---x-x-x-x-x-x-x-x-x-x-x-x---x-x-x-x-x-x---x-x-x-x-x---x-x-x-x-x---x-x-x-x-x---
A---2-2-2-2-2-2-2-2-2-2-2-2---6-6-6-6-6-6---4-4-4-4-4---7-7-7-7-7---6-6-6-6-6---
E-------------------------------------------------------------------------------

End lyrics – dark and scary, ordinary, explanation….

E------------------------------------------------------
B------------------------------------------------------
G----------------------------------4-4---6-6-----------
D--6-6-6-6---4-4-4-4----2-2-2-2----4-4---6-6-----------   2x
A--6-6-6-6---4-4-4-4----2-2-2-2----2-2---4-4-----------
E--4-4-4-4---2-2-2-2----0-0-0-0------------------------
 

Ending – I’m not like you guys, 12 majestic lies. (Tom has sex with guys)

E-------------------------------------
B--------------------------------------
G-----------4~-----------9----4~-------
D---4---2---4~-----4-----9----4~-------
A---4---2---2~-----4-----7----2~-------
E---2---0----------2---------------------

Order of song

Intro. 1 
Intro. 2 
Verse 
Chorus 
Interlude 
Fill in 
Intro. 2 
Verse 
Chorus 
Interlude 
Fill in 
Solo 
End Lyrics 
Chorus 
Interlude 
Ending
            
Submit corrections

comments powered by Disqus
↑ Back to top | *Blink 182* Tabs for Alien Exist. Lyrics for acoustic guitar and electric guitar. Tablatures and chords are parodies/interpretations of the original songs. You may use it for private study, scholarship, research or language learning purposes only