» » »

*Blink 182*, Alien Exist Bass tabs (ver.2)

Artists:  A B C D E F G H I J K L M N O P Q R S T U V W X Y Z # 

Alien Exist Bass tabs (ver.2)

*Blink 182* Tabs
 Rating:
4/5 (4 votes)
Alien Exist lessons Tabs too difficult? Try these video lessons and learn fast
                Aliens Exist
Words and Music by Tom De Longe and Mark Hoppus
Fast Rock = 216bpm


Intro
|----------------|----------------|----------------|----------------|
|----------------|----------------|4-4-4-4-4-4-4-4-|----------------|
|----(drums)-----|----(drums)-----|2-2-2-2-2-2-2-2-|4-4-4-4-6-6-6-6-|
|----------------|----------------|----------------|----------------|

Verse
|----------------|----------------|----------------|----------------|
|----------------|----------------|----------------|----------------|
|2-2-2-2-2-2-2-2-|----------------|----------------|----------------|
|----------------|2-2-2-2-2-2-2-2-|4-4-4-4-4-4-4-4-|0-0-0-0-0-0-0-0-|

|----------------|----------------|----------------|----------------|
|----------------|----------------|----------------|----------------|
|2-2-2-2-2-2-2-2-|----------------|----------------|----------------|
|----------------|2-2-2-2-2-2-2-2-|4-4-4-4-4-4-4-4-|0-0-0-0-0-0-0-0-|

|----------------|----------------|----------------|----------------|
|----------------|----------------|----------------|----------------|
|2-2-2-2-2-2-2-2-|4-4-4-4-4-4-4-4-|----------------|----------------|
|----------------|----------------|4-4-4-4-4-4-4-4-|0-0-0-0-0-0-0-0-|

|----------------|----------------|----------------|
|----------------|----------------|----------------|
|2-2-2-2-2-2-2-2-|----------------|----------------|
|----------------|2-2-2-2-2-2-2-2-|4-4-4-4-4-4-4-4-|

Verse Fill 1                      Verse Fill 2
|----------------|                |----------------|
|----------------|                |----------------|
|----------------|                |----------------|
|0-0-0-0-0-0-0-0-|                |0---------------|

Interlude 1
|----------------|----------------|----------------|----------------|
|----------------|----------------|----------------|----------------|
|2-2-2-2-2---2-2-|2---------------|----------------|----------------|
|----------------|--0-0-0-0---0-0-|0-4-4-4-4---4-4-|4-0-0-0-0---0-0-|

|----------------|----------------|----------------|----------------|
|----------------|----------------|----------------|----------------|
|--2-2-2-2---2-2-|2---------------|----------------|----------------|
|0---------------|--0-0-0-0---0-0-|0-4-4-4-4---4-4-|4-0-0-0-0---0-0-|

Chorus 1
|----------------|----------------|----------------|----------------|
|----------------|--------2-2-2-2-|----------------|----------------|
|2-2-2-2-2-2-2-2-|2-2-2-2---------|----------------|----------------|
|----------------|----------------|2-2-2-2-2-2-2-2-|2-2-2-2-2-2-2-2-|

Chorus 2
|----------------|----------------|----------------|----------------|
|----------------|----------------|----------------|----------------|
|----------------|----------------|----------------|----------------|
|4-4-4-4-4-4-4-4-|4-4-4-4-2-2-2-2-|0-0-0-0-0-0-0-0-|0-0-0-0-0-0-0-0-|

Post-Chorus
|----------------|----------------|----------------|----------------|
|----------------|----------------|4~~~~~~~~~~~~~~~|----------------|
|----------------|----------------|2~~~~~~~~~~~~~~~|----------------|
|2---------------|0---------------|----------------|----------------|

|----------------|----------------|
|----------------|----------------|
|----------------|----------------|
|2---------------|0---------------|

Interlude 2
|----------------|----------------|----------------|----------------|
|----------------|----------------|----------------|----------------|
|----------------|----------------|----------------|----------------|
|4-4-4-4-4-4-4-4-|4-4-4-4-4-4-4-4-|2-2-2-2-2-2-2-2-|2-2-2-2-2-2-2-2-|

|----------------|----------------|----------------|----------------|
|----------------|----------------|----------------|----------------|
|----------------|----------------|2-2-2-2-2-2-2-2-|----------------|
|0-0-0-0-0-0-0-0-|0-0-0-0-0-0-0-0-|----------------|2-2-2-2-2-2-2-2-|

Interlude 3
|----------------|----------------|----------------|----------------|
|----------------|----------------|----------------|----------------|
|----------------|----------------|----------------|----------------|
|4-4-4-4-4-4-4-4-|4-4-4-4-4-4-4-4-|2-2-2-2-2-2-2-2-|2-2-2-2-2-2-2-2-|

|----------------|----------------|----------------|----------------|
|----------------|----------------|----------------|----------------|
|----------------|----------------|2-2-2-2-2-2-2-2-|4-4-4-4-4-4-4-4-|
|0-0-0-0-0-0-0-0-|0-0-0-0-0-0-0-0-|----------------|----------------|

|----------------|----------------|----------------|----------------|
|----------------|----------------|----------------|----------------|
|6-6-6-6-6-6-6-6-|6-6-6-6-6-6-6-6-|9-9-9-9-9-9-9-9-|9-9-9-9-9-9-9-9-|
|----------------|----------------|----------------|----------------|

|----------------|----------------|----------------|----------------|
|----------------|----------------|----------------|4-4-4-4-4-------|
|7-7-7-7-7-7-7-7-|7-7-7-7-7-7-7-7-|2-2-2-2-2-2-2-2-|----------------|
|----------------|----------------|----------------|----------------|

Outro
|----------------|----------------|----------------|----------------|
|----------------|----------------|----------------|----------------|
|----------------|----------------|2~~~~~~~~~~~~~~~|----------------|
|2---------------|0---------------|----------------|----------------|

|----------------|----------------|----------------|----------------|
|----------------|----------------|4~~~~~~~~~~~~~~~|----------------|
|9---------------|7---------------|2~~~~~~~~~~~~~~~|----------------|
|----------------|----------------|----------------|----------------|


Intro
Verse
Verse Fill 1
Interlude 1
Verse
Verse Fill 2
Chorus 1  x2
Chorus 2  x2
Post-Chorus
Interlude 1
Verse
Verse Fill 2
Chorus 1  x2
Chorus 2  x2
Post-Chorus
Interlude 2  x2
Interlude 3
Chorus 1  x2
Chorus 2  x2
Outro
            
Submit corrections

comments powered by Disqus
↑ Back to top | *Blink 182* Bass for Alien Exist. Lyrics for acoustic guitar and electric guitar. Tablatures and chords are parodies/interpretations of the original songs. You may use it for private study, scholarship, research or language learning purposes only