» » »

*Blink 182*, Alien Exist Tabs (ver.8)

Artists:  A B C D E F G H I J K L M N O P Q R S T U V W X Y Z # 

Alien Exist Tabs (ver.8)

*Blink 182* Tabs
 Rating:
4/5 (4 votes)
Alien Exist lessons Tabs too difficult? Try these video lessons and learn fast
1
                Aliens Exist by Blink-182.
Album:Blink-182-Enema of The State(1998), Mark, Tom & Travis Show(2000) 
:
# Intro1 #    P-M=palm-mute (play very fast)
E--------------------------|
B--------------------------|
G--44444444444---4---------|
D--44444444444---4---------|
A--22222222222---2---------|
E--\---P-M---/-------------|
> 
# Intro2 #   play X2
E---------------------------------------------|
B---------------------------------------------|
G---------------444444-4----------------------|
D--/pick-slide\-444444-422222-266666-622222---|
A--<<<<<<<<<<<--222222-222222-266666-622222---|
E--<<<<<<<<<<<----------00000-044444-400000---|
>
# Verse #    P-M=palm-mute
E---------------------------------------------------------------------------------------->
B---------------------------------------------------------------------------------------->
G--4444444-----------------------444444----------------------444444-666666--------------->
D--4444444-4444444-666666-222222-444444-444444-666666-222222-444444-666666-666666-222222->
A--2222222-4444444-666666-222222-222222-444444-666666-222222-222222-444444-666666-222222->
E----------2222222-444444-000000--------222222-444444-000000---------------444444-000000->
> \________________________________________P-M__________________________________________/
>------------------------------|
>------------------------------|
>--444444----------------------|
>--444444-4444444-666666-22-2--|
>--222222-4444444-666666-22-2--|
>---------2222222-444444-00-0--|
> \_________P-M___________/
>
# Chorus #   play X2         # End-chorus #  P-M=palm-mute
E---------------------------|----------------------------------|-----------------|
B---------------------------|--------------X2------------------|-----------------|
G-444444444444--------------|----------------------------------|---------4-------|
D-444444444444-444444444444-|--1---1---1---1---2---2---2---2---|---4--2--4--4--2-|
A-222222222222-444444444444-|-2-2-2-2-2-2-2-2-2-2-2-2-2-2-2-2--|---4--2--2--4--2-|
E--------------222222222222-|\-------------P-M---------------/-|---2--0-----2--0-|
>
Play # Intro2 # X2, # Vrese #, # Chorus #, # End-Chorus #
>
# Bridge1 #     /or\=slide
E---------------------------------------------------------->
B---------------------------------------------------------->
G--4444444444444444444444444444444444444444444444444444444->
D--XXXXXXXXXXXXXXXXXXXXXXXXXXXXXXXXXXXXXXXXXXXXXXXXXXXXXXX->
A--2222222222222222222222222222222222222222222222222222222->
E---------------------------------------------------------->
>
>---------------------------------------|
>---------------------------------------|
>--88888888/66666666\99999999/88888888--|
>--XXXXXXXX/XXXXXXXX\XXXXXXXX/XXXXXXXX--|
>--66666666/44444444\77777777/66666666--|
>---------------------------------------|
>
# Bridge2 #   play X2
E---------------------------------------|
B---------------------------------------|
G-----------------------------4444------|
D--66666666-44444444-22222222-44444444--|
A--66666666-44444444-22222222-22224444--|
E--44444444-22222222-00000000-----2222--|
>
Play # Chorus # X2, # End-chorus(without last part)#
>
# Outro #
E---------------------|
B---------------------|
G--------4--------4---|
D--4--2--4--4--2--4---|
A--4--2--2--4--2--2---|
E--2--0-----2--0------|
:
:
            
Submit corrections

comments powered by Disqus
↑ Back to top | *Blink 182* Tabs for Alien Exist. Lyrics for acoustic guitar and electric guitar. 1 Tablatures and chords are parodies/interpretations of the original songs. You may use it for private study, scholarship, research or language learning purposes only