» » »

*Blink 182*, *** A Dog Tabs (ver.3)

Artists:  A B C D E F G H I J K L M N O P Q R S T U V W X Y Z # 

*** A Dog Tabs (ver.3)

*Blink 182* Tabs
Rating:
0/5 (0 votes)
*** A Dog lessons Tabs too difficult? Try these video lessons and learn fast
                Blink-182
	"*** A Dog"
	From "Take Off Your Pants And Jackets"




|------------------------------------------------|
|-----0------------------------------------------|
|-------0---0----5---7---------------------------|
|---0-----0------5---7---------------------------|
|--------------3---5-----------------------------|
|------------------------------------------------|

or

|------------------------------------------------|
|----0-------------------------------------------|
|------0---0---0-----2---------------------------|
|--0-----0---------0-----------------------------|
|------------3---3-------------------------------|
|------------------------------------------------|

|------------------------------------------------|
|-----0------------------------------------------|
|-------0---0----5---7---------------------------|
|---0-----0------5---7---------------------------|
|--------------3---5-----------------------------|
|------------------------------------------------|

or

|------------------------------------------------|
|----0-------------------------------------------|
|------0---0---0-----2---------------------------|
|--0-----0---------0-----------------------------|
|------------3---3-------------------------------|
|------------------------------------------------|

|------------------------------------------------|
|-----0------------------------------------------|
|-------0---0----5---7---------------------------|
|---0-----0------5---7---------------------------|
|--------------3---5-----------------------------|
|------------------------------------------------|

or

|------------------------------------------------|
|----0-------------------------------------------|
|------0---0---0-----2---------------------------|
|--0-----0---------0-----------------------------|
|------------3---3-------------------------------|
|------------------------------------------------|

|------------------------------------------------|
|-----0------------------------------------------|
|-------0---0----5---7---------------------------|
|---0-----0------5---7---------------------------|
|--------------3---5-----------------------------|
|------------------------------------------------|

or

|------------------------------------------------|
|----0-------------------------------------------|
|------0---0---0-----2---------------------------|
|--0-----0---------0-----------------------------|
|------------3---3-------------------------------|
|------------------------------------------------|

|------------------------------------------------|
|-----0------------------------------------------|
|-------0---0----5---7---------------------------|
|---0-----0------5---7---------------------------|
|--------------3---5-----------------------------|
|------------------------------------------------|

or

|------------------------------------------------|
|----0-------------------------------------------|
|------0---0---0-----2---------------------------|
|--0-----0---------0-----------------------------|
|------------3---3-------------------------------|
|------------------------------------------------|

|------------------------------------------------|
|-----0------------------------------------------|
|-------0---0----5---7---------------------------|
|---0-----0------5---7---------------------------|
|--------------3---5-----------------------------|
|------------------------------------------------|

or

|------------------------------------------------|
|----0-------------------------------------------|
|------0---0---0-----2---------------------------|
|--0-----0---------0-----------------------------|
|------------3---3-------------------------------|
|------------------------------------------------|
            

comments powered by Disqus
↑ Back to top | *Blink 182* Tabs for *** A Dog. Lyrics for acoustic guitar and electric guitar. Tablatures and chords are parodies/interpretations of the original songs. You may use it for private study, scholarship, research or language learning purposes only