» » »

*** A Dog 1 Tabs

Artists:  A B C D E F G H I J K L M N O P Q R S T U V W X Y Z # 

*** A Dog 1 Tabs

(ver. 2)
*Blink 182* Tabs
 Rating:
4/5 (4 votes)
    *** A Dog lessons Tabs too difficult? Try these video lessons and learn fast
                
------------------------------------------------------------

E ----------------------------------------------------------
B ----------------------------------------------------------
G --------0----------0-------0----------2------------------
D -----------0-------------------0--0-----------------------
A -------------------------3--------------------------------
E -----3-----------3----------------------------------------

Play this thoughout the song-its a cool little riff!


------------------------------------------------------------

E ----------------------------------------------------------
B ----------------------------------------------------------
G --------0----------0-------0----------2------------------
D -----------0-------------------0--0-----------------------
A -------------------------3--------------------------------
E -----3-----------3----------------------------------------
            
Submit corrections

↑ Back to top | *Blink 182* Tabs for *** A Dog. Lyrics for acoustic guitar and electric guitar. Tablatures and chords are parodies/interpretations of the original songs. You may use it for private study, scholarship, research or language learning purposes only