» » »

Blink, Whats My Age Again Tabs (ver.2)

Artists:  A B C D E F G H I J K L M N O P Q R S T U V W X Y Z # 

Whats My Age Again Tabs (ver.2)

Blink Tabs
Rating:
0/5 (0 votes)
Whats My Age Again lessons Tabs too difficult? Try these video lessons and learn fast
                Whats My age Again
Blink 182
Guitar
Enema of the State
PM = Palm Mute

If the Intro doesn't sound right please see the bottom.
These are just the parts...The order of playing is at the bottom.

Intro        Play 7 times the go to "End Intro"
 E|-----------------------------------------------------------
 B|-----9------9--------9-----------9-------------------------
 G|----9-9----9-9------9-9---------9-9------------------------
 D|-7---------------------------------------------------------
 A|---------7-------------------------------------------------
 E|------------------7----------9-----------------------------


End Intro
E|------------------------------------------------------------
B|-----9------9-----9-------9---------9-----------------------
G|----9-9----9-9---9-9-----9-9-------9-9----------------------
D|--7-------------------------------7-------------------------
A|----------7-------------------------------------------------
E|----------------7-------7-----------------------------------

Chorus     3X      -->             1X
E|----------------------|-------------------------------------
B|----------------------|-------------------------------------
G|--6-6---8-8----4-4-4-4|---6-6--8-8-8-8-8-8--6-6-6-6-6-6-----
D|4-6-6---8-8----4-4-4-4|4--6-6--8-8-8-8-8-8--6-6-6-6-6-6-----
A|4-4-4---6-6----2-2-2-2|4--4-4--6-6-6-6-6-6--4-4-4-4-4-4-----
E|2---------------------|2------------------------------------

Verse 2
E|------------------------------------------------------------
B|------------------------------------------------------------
G|4-4-4-4-----------6-6-6-6--8-8-8-8--------------------------
D|4-4-4-4--4-4-4-4--6-6-6-6--8-8-8-8--------------------------
A|2-2-2-2--4-4-4-4--4-4-4-4--6-6-6-6--------------------------
E|---------2-2-2-2--------------------------------------------
PM....................................


Verse 2 End
E|------------------------------------------------------------
B|------------------------------------------------------------
G|4-4-4-4-----------6-6-6-6-6-6-6-6--4-4-4-4-4-4-4-4----------
D|4-4-4-4--4-4-4-4--6-6-6-6-6-6-6-6--4-4-4-4-4-4-4-4----------
A|2-2-2-2--4-4-4-4--4-4-4-4-4-4-4-4--2-2-2-2-2-2-2-2----------
E|---------2-2-2-2--------------------------------------------
PM...................................................


Solo:Slow
E|------------------------------------------------------------
B|--11---11------11----11-------------------------------------
G|----11---11------11----11-----------------------------------
D|9------------9----------------------------------------------
A|------------------------------------------------------------
E|------------------------------------------------------------


E|------------------------------------------------------------
B|------------------------------------------------------------
G|------3-4--------3-4--------3-4--------3-4------------------
D|4-4-4-------4-4-4------4-4-4------4-4-4---------------------
A|------------------------------------------------------------
E|------------------------------------------------------------


       8X
E|----2--------|
B|-------------|
G|--3--------3-|
D|4--------4---|
A|-------------|
E|-------------|

Order Of Playing:
Intro
End Intro
Chorus
Intro 1X
Verse 2
Verse 2 end
Chorus
Solo
Chorus

Note that some guitars sound different.If the intro doesn't sound right on your guitar try this:

Intro      8X

E|-----------------------------------
B|---11------11-------11--------11---
G|-11--11--11--11---11--11----11--11-
D|9----------------------------------
A|--------9--------------------------
E|-----------------9--------11-------



End Intro        1X
E|----------------------------------------------
B|----11-------11--------11-------11-------11---
G|--11--11---11--11----11--11---11--11---11--11-
D|9-------------------------------------9-------
A|---------9------------------------------------
E|--------------------9--------9----------------
            
Submit corrections

comments powered by Disqus
↑ Back to top | Blink Tabs for Whats My Age Again. Lyrics for acoustic guitar and electric guitar. Tablatures and chords are parodies/interpretations of the original songs. You may use it for private study, scholarship, research or language learning purposes only